Johnson Jack - Belle Chords & Tabs

 

Belle Chords & Tabs

Johnson Jack Chords & Tabs

Version: 1 Type: Tab 3 ratings
1 star 2 stars 3 stars 4 stars 5 stars
comments

Belle Tab

   
#----------------------------------PLEASE NOTE---------------------------------#
#This file is the author's own work and represents their interpretation of the #
#song. You may only use this file for private study, scholarship, or research. #
#------------------------------------------------------------------------------##



Belle -- Jack Johnson


What a kick-ass song off his latest CD. Sorry I don't have the words .... listen to
the song to get the actual rhythm ... its hard to duplicate that on here. I think Jack
fingerpicks it on a nylon string, but with a bit of practice it can be done with a pick.
Sorry I don't know some of the chord names.

I know lots of Jack's songs are tabbed really inaccurately. I figured out most of the
actual versions, but haven't tabbed me yet. Email me at turvyc@uvic.ca for good tabz.



Belle -- Jack Johnson
[ Tab from: http://www.guitartabs.cc/tabs/j/johnson_jack/belle_tab.html ]
  Use your thumb to get that bass note. 
|-----------------------|------------------------|------------------------|
|---4---4---4-------4---|---4---4---4--------4---|--4---4----4-------4----|
|---5---5---4-----4---4-|---5---5---4------4---4-|--5---5----4-----4---4--|
|---5---5---5---5-------|---5---5---5---5--------|--5---5----5---5--------|
|-----------------------|------------------------|------------------------|
|-5---5---5---5---------|-5---5---5---5----------|5---5---5----5----------|


  C#m7    Dm7
|-------------------------------------------------------------------------|
|---5---5-6---6-6-5---7---7---7-------7-----7---7---6-------6------4---4--|
|---4---4-5---5-5-5---7---7---7-----7---7---7---7---7-----7---7----5---5--|
|---6---6-7---7-7-----7---7---6---6---------6---6---7---7----------5---5--|
|-4---4---5-5-------------------------------------------------------------|
|-------------------7---7---7---7---------7---7---6---6----------5---5----|


|-----------5----------------------------| He plays this three times:
|---6-----6---6---7---7---6-------6------| Once with only guitar, once with
|---5---5---------7---7---7-----7---7----| an accordian, and finally once
|---7-------------7---7---7---7----------| with him singing.
|-5---5----------------------------------|
|---------------7---7---6---6------------|

Tabbed by turvyc
Comments