Johnson Eric - Trademark Chords & Tabs

 

Trademark Chords & Tabs

Johnson Eric Chords & Tabs

Version: 2 Type: Tab 0 ratings
1 star 2 stars 3 stars 4 stars 5 stars
comments

Trademark Tab

TABBED BY: JOEL, TUESDAY 2003-10-14
WRITTEN BY: ERIC JOHNSON


				   Trademark

                                  Eric Johnson



e:|---------------------------------------------------------------------|
B:|---------------------------------------------------------------------|
G:|-----10----12--------14-12~~---10-9~~-----------------------------10-|
D:|---12----------12~~-------------------12-10~~------7h8h10-------12---|
A:|-------------------------------------------------8-------8-----------|
E:|---------------------------------------------------------------------|


e:|---------------------------------------------------|
B:|---------------------------------------------------|
G:|--12-------14-12~~---10-9~~------------------------|
D:|------12~~-------------------12-10~-------12*--14*-|
A:|---------------------------------------------------|
E:|---------------------------------------------------|



e:|--13--12--10--8~----13-12-10--8~--5--3-----------|
B:|--15--13--10--8~----15-12-10--8~--5--5-5-5-3~----|
G:|---------------------------------------7-5-5~----|X2
D:|-------------------------------------------------|
A:|-------------------------------------------------|
E:|-------------------------------------------------|




e:|-----------------------------------------------------------------|
B:|-----------------------------------------------------------------|
G:|-----10----12--------14-12~~---10-9~~-----------12~~-------------|
D:|---12----------12~~-------------------12-10~~--------------------|
A:|---------------------------------------------------------------8-|
E:|-------------------------------------------------------------10--|



e:|-------------
B:|-------------
G:|-------------
D:|-------------
A:|--8---10-----
E:|-8--10---10~~




e:|------------------------------------------------------------------------------------------------------------------|
B:|---------------------------------------------13h14p13-----14p13------------13h14p13-----13h14-16p14p13------------|
G:|-15b17r15p13--13h15p13--------13h15p13--13h15--------15p13-----15p13--13h15--------15p13--------------15p13-------|
D:|------------15--------13h15p13--------15----------------------------15-------------------------------------15p13--|
A:|----------------------------------------------------------------------------------------------------------------15|
E:|------------------------------------------------------------------------------------------------------------------|



e:|--------------------------------------------|
B:|--------------------------------------------|
G:|--------------------------------------------|
D:|-------8-8-10-10-13-13~---------------------|
A:|-10-10--------------------------------------|
E:|--------------------------------------------|


e:|--------------------------------------------|
B:|--------------------------------------------|
G:|--------------------15b17r15----------------|
D:|----8-8-10-10-13/14----------14~-14~~-------|
A:|-10-----------------------------------------|
E:|--------------------------------------------|



e:|--------17------------------------------------------------------------|
B:|-15-17-----15-17~-17p15-----------------------------------------------|
G:|----------------------17p15--15h17p15---------------------------------|
D:|---------------------------17--------17p15-----15h17p15---------------|
A:|------------------------------------------17p15---------17p15---------|
E:|------------------------------------------------------------17p15-13~-|


e:|--------------------|
B:|-12--10--10~--------|
G:|-14--10--9~---------|
D:|--------------------|
A:|--------------------|
E:|--------------------|




e:|-------------------------------------------------|
B:|--9*--10-9----------8~----10-9---9~--------------|
G:|--9*--------11-9---9------9--9---9~--------------|
D:|-------------------------------------------------|
A:|-------------------------------------------------|
E:|-------------------------------------------------|


e:|-----------------9--------------------------|
B:|----------------9---------------------------|
G:|-------8-10---------------------------------|
D:|-8-10---------------------------------------|
A:|--------------------------------------------|
E:|--------------------------------------------|




e:|-----------------------------------------------|
B:|---------9-------------------------------------|
G:|--9-8-9----11--------------9-8-9----8----------| X2---than variation and this X3
D:|----------------------------------11-----------|
A:|-----------------------------------------------|
E:|-----------------------------------------------|

third time:

|----------
|----------
|----8-9---
|--9-------
|----------
|----------



e:|------12-12-13~--12-13-12h13-------|    |----------------|
B:|--/13-----------------------12-----|    |----------------|
G:|------------------------------13~--|    |----------------|
D:|-----------------------------------|    |---------7-5----|
A:|-----------------------------------|    |-------8--------|
E:|-----------------------------------|    |--6-10-------8--|



e:|------------------------------------------|
B:|-11-10~--11-10-8-6-7~6/7/8~--------------|
G:|------------------------------------------|
D:|------------------------------------------|
A:|------------------------------------------|
E:|------------------------------------------|

e:|------------------------------------------|
B:|-11-10~--11-10-8-6-5~---------------------|
G:|------------------------------------------|
D:|------------------------------------------|
A:|------------------------------------------|
E:|------------------------------------------|

e:|-----------8/9/119-11/13-11-13/15/16~----|
B:|------9/11--------------------------------|
G:|-8/10-------------------------------------|
D:|------------------------------------------|
A:|------------------------------------------|
E:|------------------------------------------|


e:|------------------------------------------|
B:|-11-10~--11-10-8-6-7~6/7/8~--------------|
G:|------------------------------------------|
D:|------------------------------------------|
A:|------------------------------------------|
E:|------------------------------------------|

e:|-12-----12--------------------------------|
B:|----12-----12-8-6-7~----------------------|
G:|----------------------4-6-6b--------------|
D:|------------------------------------------|
A:|------------------------------------------|
E:|------------------------------------------|


e:|---------------------------------------------------------------------|
B:|---------------------------------------------------------------------|
G:|-----10----12--------14-12~~---10-9~~-----------------------------10-|
D:|---12----------12~~-------------------12-10~~-----7h8h10-------12----|
A:|-------------------------------------------------8------8------------|
E:|---------------------------------------------------------------------|


e:|---------------------------------------------------|
B:|---------------------------------------------------|
G:|--12--------14-12~~---10-9~~-----------------------|
D:|------12~~-------------------12-10~-----12*---14*--|
A:|---------------------------------------------------|
E:|---------------------------------------------------|


[ Tab from: http://www.guitartabs.cc/tabs/j/johnson_eric/trademark_tab_ver_2.html ]
e:|-------------------------------------------------------------------|
B:|-------------------------------------------------------------------|
G:|----------------10~------12h14--12--10------12h14-12--/9----7------|
D:|-----10-1212-12--------12-----12--12--10/14-------------10---5----10
A:|--/12--------------------------------------------------------------|
E:|-------------------------------------------------------------------|


e:|---------------------------------------------------------|
B:|-------------------------------------13~x-6/86~---------|
G:|----------10--12-14b17r14--10~--12h14---x-5/75~-5/75~--|
D:|-----10-12---------------------------------------5/75~--|
A:|-12~-----------------------------------------------------|
E:|---------------------------------------------------------|


e:|--13--12--10--8~----13-12-10--8~--5--3-------------|
B:|--15--13--10--8~----15-12-10--8~--5--5--5-5-3~-----|
G:|----------------------------------------7-5-5~-----|
D:|---------------------------------------------------|
A:|---------------------------------------------------|
E:|---------------------------------------------------|


e:|--1-3-1-3-5-8-10-12-10~--8~--|--------------|
B:|--3-5-3-5-6-8-10-13-10~--8~--|--------------|
G:|--------|---------|----------|--10~---------|
D:|--------|---------|----------|--10~---------|
A:|--------|---------|----------|----------7-8-|
E:|--------|---------|----------|--------8-----|


e:|------------------------------------------|
B:|-11-10~--11-10-8-6-7~6/7/8~--------------|
G:|------------------------------------------|
D:|------------------------------------------|
A:|------------------------------------------|
E:|------------------------------------------|

e:|------------------------------------------|
B:|-11-10~--11-10-8-6-5~---------------------|
G:|------------------------------------------|
D:|------------------------------------------|
A:|------------------------------------------|
E:|------------------------------------------|

e:|-----------8/9/119-11/13-11-13/15/16br16-|
B:|------9/11--------------------------------|
G:|-8/10-------------------------------------|
D:|------------------------------------------|
A:|------------------------------------------|
E:|------------------------------------------|


e:|-16b18-14-16---14-16b-16-14--14-1616~-----|
B:|-------------14------------14b------------|
G:|------------------------------------------|
D:|------------------------------------------|
A:|------------------------------------------|
E:|------------------------------------------|


e:|--14-16p14-----14-------------------------------------------------|
B:|----------16p14--14h16p14--------------14h16p14-------------------|
G:|-------------------------16p14p13-14h16--------14h16p14-----------|
D:|-------------------------------------------------------16p14-1616-|
A:|------------------------------------------------------------------|
E:|------------------------------------------------------------------|


e:|--------------------------1414---16----------14-1617-19---|
B:|-------------14-15-1717-17-----17-------14-15-------------|
G:|-------14-16-----------------------14-16------------------|
D:|-14-16----------------------------------------------------|
A:|----------------------------------------------------------|
E:|----------------------------------------------------------|


e:|-19b21-16----16---------------------------------|
B:|----------19---17-19-17-------------------------|
G:|------------------------16-18-15-16-------------|
D:|-----------------------------------18-20-16-18~-|
A:|------------------------------------------------|
E:|------------------------------------------------|


e:|------------------------16-1818-19b-------------|
B:|----------16-18-19--1919------------------------|
G:|----16-18---------------------------------------|
D:|-18---------------------------------------------|
A:|------------------------------------------------|
E:|------------------------------------------------|


e:|-18-18h19p18p16------------------------------------------------------------------------------------------------|
B:|---------------19p17p16--17p16-----19p17p16---------------16-19p17p16------------------------------------------|
G:|-----------------------18-----18p16--------18p16p15--16h18-----------16h18p16-15h16h18-----16h18p16------------|
D:|---------------------------------------------------18---------------------------------16h18--------18p16-------|
A:|--------------------------------------------------------------------------------------------------------18-----|
E:|---------------------------------------------------------------------------------------------------------------|


e:|----------------------------------------------------------------|
B:|----------------------------------------------------------------|
G:|------16h18p16--------------------------------------------------|
D:|-16h18--------18p16--16h18p16------------16h18p16---------------|
A:|-------------------18--------18-16--16h18--------18p16----------|
E:|----------------------------------18------------------18-16-14~-|


e:|----------------------------------------------14-16~-|
B:|--------------------------------------14-15-17-------|
G:|---------------------------------14-16---------------|
D:|------------------14-16p14--14-16--------------------|
A:|------14-16~-14-16--------16-------------------------|
E:|-14-16-----------------------------------------------|


e:|---14-16-1717~---14-16-16-17-16-14-19'----|
B:|-14------------14-------------------------|
G:|------------------------------------------|
D:|------------------------------------------|
A:|------------------------------------------|
E:|------------------------------------------|


e:|--------------------------------------------------------|
B:|--------------------------------------------------------|
G:|--------------------------------------------------------|
D:|-------------------5---7-----------------------5-8--7---|
A:|---------7-8--------8---8------------7-8--------8----8--|
E:|--0--5-8--------0-8--8--------0--5-8--------0-8-------8-|



e:|--------------------------------|
B:|-----10-8---------10h11p10-8----|
G:|---10----9------10----------9---|
D:|--8-------10---8-------------10-|
A:|--------------------------------|
E:|--------------------------------|

e:|------------10-12/14-16-16/18/19----------|
B:|----10-10-12------------------------------|
G:|--10--------------------------------------|
D:|-8----------------------------------------|
A:|------------------------------------------|
E:|------------------------------------------|


e:|---16-19-17-16-------16-17h19p17----------|
B:|-17-----------17---17-----------17--------|
G:|-----------------16---------------16------|
D:|------------------------------------------|
A:|------------------------------------------|
E:|------------------------------------------|



e:|---16-19-17-16-------16-------------------|
B:|-17-----------17---17----14---------------|
G:|-----------------16----14---16~-----------|
D:|---------------------14-------------------|
A:|------------------------------------------|
E:|------------------------------------------|



e:|------------------------------------------|
B:|------------------------------------------|
G:|------------------------------------------|
D:|------------------------------------------|
A:|------------------------------------------|
E:|------------------------------------------|

THE END
Comments