Johnson Eric - Cliffs Of Dover Chords & Tabs

 

Cliffs Of Dover Chords & Tabs

Johnson Eric Chords & Tabs

Version: 1 Type: Tab 0 ratings
1 star 2 stars 3 stars 4 stars 5 stars
comments

Cliffs Of Dover Tab

Cliffs Of Dover           Eric Johnson

Here's Cliffs of Dover. Great song, very hard though.


My Rig:
Squire Telecaster
Marshall 50 watt amp
Morley wah wah

My Favourite Bands:
Primus
Clutch
No Doubt

My Favourite guitar websites:
http://www.tabclawer.com    - good tab site
http://www.nodoubt.com   - no doubt's official site
http://www.guitarandbass.co.uk   - brilliant guitar lesson site


                                                          
E||-----------15b-------|--15--12--14------12------------|
B||---------------------|--------------15------12--15b---|
G||---------------------|--------------------------------|
D||---------------------|--------------------------------|
A||---------------------|--------------------------------|
E||--0------------------|--------------------------------|


                                                   
--12-------------------12-15-14h12----14-12-------|
------15h-12-----12-15-------------15-------15h12-|
--------------14b---------------------------------|
--------------------------------------------------|
--------------------------------------------------|
--------------------------------------------------|


                                                      
-----12----------------------------------------------|
--15----15h12----15h12----15h12-------------------5--|
--------------14-------14b------14r14h12-----7-------|
-----------------------------------------14----------|
-----------------------------------------------------|
-----------------------------------------------------|


                                                                  
----5-7-6-5---------------------------|--------------------------|
--8---------8-5---5-7---5-3-----------|--------------------------|
----------------7-----4-----4h2---4-2-|--------------------------|
--------------------------------5-----|--5-2---5-2-----2-0-------|
--------------------------------------|------5-----5-2-----2-0---|
--------------------------------------|------------------------3b|


                                                             
--------------------|----------------------7----8/10---8----|
-------8r-----------|--------5------7/8-10---10----------12-|
--------------------|---------------------------------------|
--------------------|-----7-------9-------------------------|
--------------------|--3--------5---------------------------|
--0-----------------|---------------------------------------|


                           
--------------------------|
----------12----------13~-|
--------------------------|
------14----------14------|
--10----------12----------|
--------------------------|


                                             
-----------------------------------15----15-|
----------15----------17--------19----------|
--------------------------------------------|
------17----------17---------19-------------|
--14----------15----------17----------------|
--------------------------------------------|


                                                   
-----15----15----15----15----15----15----15----15-|
--19----------------------------17----19----------|
--------19----------------17----------------19----|
--------------19----17----------------------------|
--------------------------------------------------|
--------------------------------------------------|


                                                   
-----15----15----15----15----15----15----15----15-|
--------------------17----19----------------17----|
--------------17----------------19----17----------|
--19----17----------------------------------------|
--------------------------------------------------|
--------------------------------------------------|


                                                   
-----15----15----15----15----17-15----15-19-17-15-|
--19----------------17----19-------19-------------|
--------19----17----------------------------------|
--------------------------------------------------|
--------------------------------------------------|
--------------------------------------------------|


                                                                      
-----17-15------------------------------------------------------------
--19-------19-15----17-15---------------------------------------------
-----------------17-------17-14----16-14----------16-14----------16-14
--------------------------------17-------17-14----------17-14---------
-----------------------------------------------17-------------17------
----------------------------------------------------------------------


                                                       
-------------------------||---------------------------|
--------18r-18b----------||---8-----------8-----------|
----------------------0--||*-----7h-0--0-----9h-0--0--|
-------------------------||*--------------------------|
-------------------------||---------------------------|
--15---------------------||---------------------------|


                            2x                        
----------------------------||-----------------------|
--8------------8------------||--8-----------8--------|
-----11h-0--0-----9h-0--0--*||-----7h-0--0-----------|
---------------------------*||-----------------------|
----------------------------||-----------------------|
----------------------------||-----------------------|


                                                                    
----------------7----|--10-----------------|--------7--10~---------|
---------8-----------|--8------------------|-----8-----------------|
--7------------------|--0---------------5/-|--7--------------------|
---------------------|---------------------|-----------------------|
---------------------|---------------------|-----------------------|
---------------------|---------------------|-----------------------|


                                            
--8------------8----|----------------------|
--8-----------------|--10r-----8-----------|
--5-----------------|-------------------0--|
--------------------|----------------------|
--------------------|----------------------|
--------------------|----------------------|


                                                     
--------------------------|-------------------------|
--8-----------8-----------|--8------------8---------|
-----7h-0--0-----9h-0--0--|-----11h-0--0------------|
--------------------------|-------------------------|
--------------------------|-------------------------|
--------------------------|----------------------0--|


                                                   
---------------------------|----------------------|
--8--------------8---------|--8---------10--------|
-------7-------------------|----------------------|
------------------------0--|---------0------------|
---------------------------|----------------------|
------------8--------------|----------------------|


                                                      
--10----------------------|------12--14--------------|
--8-------------------12--|--15----------15----------|
--0---------------12------|--------------------------|
--------------12----------|--------------------------|
--------------------------|--------------------------|
--------------------------|--------------------------|


                                                     
--------------------12------|-----------------------|
----------10--15~-----------|-----------------------|
------12--------------------|--14r-----12~-------0--|
--10------------------------|-----------------------|
----------------------------|-----------------------|
----------------------------|-----------------------|


                                                    
--------------------------|------------------------|
--8-----------8-----------|--8------------8--------|
-----7h-0--0-----9h-0--0--|-----11h-0--0-----------|
--------------------------|------------------------|
--------------------------|------------------------|
--------------------------|------------------------|


                                              
-------------------|-------------------------|
-------------------|-------------------------|
--5----------------|--7----------------------|
--5----------------|--7----------14/-12/-14--|
--3----------------|--5----------------------|
-------------------|-------------------------|


                                                                      
----------------------------------|----------------------------------|
----------------------------------|----------------------------------|
--17------14--17/-16------12--16/-|--14------11--14------11--12--14/-|
------14--------------12----------|------12----------12--------------|
----------------------------------|----------------------------------|
----------------------------------|----------------------------------|


                                                              
--------------------------------|----------------------------|
--------------------------------|----------------------------|
--16------12--16/-14------11----|--12--11--------------------|
------12--------------12--------|----------14--12------------|
--------------------------------|------------------14~-------|
--------------------------------|----------------------------|


                                                                      
----------------------------------|------------------10--------------|
----------------------------------|----------------------------------|
--17------14--17/-16------12--16/-|--14------11--14----------11--14/-|
------14--------------12----------|------12--------------12----------|
----------------------------------|----------------------------------|
----------------------------------|----------------------------------|


                                                            
--------------------------------|--------------------------|
--------------------------------|----------------15b-------|
--16------12--16/-14------11----|--12--11------------------|
------12--------------12--------|----------14--------------|
--------------------------------|--------------------------|
--------------------------------|--------------------------|


                                                                      
----------------------------------|----------------------------------|
----------------------------------|----------------------------------|
--17------14--17/-16------12--16/-|--14------11--14------11--12--14/-|
------14--------------12----------|------12----------12--------------|
----------------------------------|----------------------------------|
----------------------------------|----------------------------------|


                                                                
--------------------------------|------------------------------|
--------------------------------|------------------------------|
--16------12--16/-14------11----|--12--11----------------------|
------12--------------12--------|----------14--12--------------|
--------------------------------|------------------14------12--|
--------------------------------|------------------------------|


                                                                      
----------------------------------|------------------10--------------|
----------------------------------|----------------------------------|
--17------14--17/-16------12--16/-|--14------11--14----------11--14/-|
------14--------------12----------|------12--------------12----------|
----------------------------------|----------------------------------|
----------------------------------|----------------------------------|


                                                              
--------------------------------|----------------------------|
--------------------------------|-------------------------7--|
--16------12--16/-14------11----|--12--11--9-----------7-----|
------12--------------12--------|-------------9/-7--7--------|
--------------------------------|----------------------------|
--------------------------------|----------------------------|


                                                    
--------------------------|------------------------|
--8-----------8-----------|--8------------8--------|
-----7h-0--0-----9h-0--0--|-----11h-0--0-----------|
--------------------------|------------------------|
--------------------------|------------------------|
--------------------------|------------------------|


                                                         
--14------17--------12----|----10-8-----------7---------|
--------------------------|---------10-----------10h-8--|
--------------------------|-----------------------------|
----------------12--------|-----------------------------|
--------------------------|-----------------------------|
--------------------------|-----------------------------|


                                                    
------------------------|--------------------------|
------------8-----------|--8------------8----------|
--7------0-----9h-0--0--|-----11h-0--0-------------|
------------------------|----------------------12--|
------------------------|--------------------------|
------------------------|--------------------------|


                                                 
----------14--15----------|----------------7----|
------15------------------|---------8-----------|
--14----------------------|--7------------------|
--------------------------|---------------------|
--------------------------|---------------------|
--------------------------|---------------------|


                                                      
--10--------------------|----------12--14------------|
--8---------------------|--12--15----------15~-------|
--0-----------------12--|----------------------------|
--------------12--------|----------------------------|
------------------------|----------------------------|
------------------------|----------------------------|


                                                       
------------10----12--------|-------------------------|
----------------------------|-------------------------|
--------12--------------12/-|--14r-------12--------0--|
--10------------------------|-------------------------|
----------------------------|-------------------------|
----------------------------|-------------------------|


                                                     
-------------------------|-----------------------7--|
--8----------8-----------|--8---------8-------8-----|
-----7h-0-------9h-0--0--|-----11h-0-------9--------|
-------------------------|--------------------------|
-------------------------|--------------------------|
-------------------------|--------------------------|


                                                          
--10h-8-----8h-7-----------|-------------------------14--|
------------------8--------|--8~-------------15--17------|
---------7-----------9--7--|-------------14--------------|
---------------------------|-----------------------------|
---------------------------|---------17------------------|
---------------------------|-----------------------------|


                                                          
--------------------14--17--|----14----------------15----|
------17--15----17----------|--------17--15----17--------|
----------------------------|----------------------------|
----------------------------|----------------------------|
----------------------------|----------------------------|
----------------------------|----------------------------|


                                                 
--17r-------------------|-----------------------|
----------18b-----------|-----------------------|
--------------------12/-|--14------12~-------0--|
------------------------|-----------------------|
------------------------|-----------------------|
------------------------|-----------------------|


                                                    
--------------------------|------------------------|
--8-----------8-----------|--8------------8--------|
-----7h-0--0-----9h-0--0--|-----11h-0--0-----------|
--------------------------|------------------------|
--------------------------|------------------------|
--------------------------|------------------------|


                                               
--8----------------|--------------------------|
--8----------------|--------------------------|
--5----------------|--------------------------|
-------------------|--12----------14/-12/-14--|
-------------------|--12----------------------|
-------------------|--10----------------------|


                                                                      
----------------------------------|----------------------------------|
----------------------------------|----------------------------------|
--17------14--17/-16------12--16/-|--14------11--14------11--12--14/-|
------14--------------12----------|------12----------12--------------|
----------------------------------|----------------------------------|
----------------------------------|----------------------------------|


                                                                
--------------------------------|------------------------------|
--------------------------------|------------------------------|
--16------12--16/-14------11----|--12--11----------------------|
------12--------------12--------|----------14--12--------------|
--------------------------------|------------------14~-----12--|
--------------------------------|------------------------------|


                                                                      
----------------------------------|------------------10--------------|
----------------------------------|----------------------------------|
--17------14--17/-16------12--16/-|--14------11--14----------11--14--|
------14--------------12----------|------12--------------12----------|
----------------------------------|----------------------------------|
----------------------------------|----------------------------------|


                                     
--------------14--15----------------|
----------15------------------------|
------14----------------------------|
--12----------------------------14--|
------------------------14--17------|
------------------------------------|


                                     
------------------15--19------------|
----------15--17----------17--------|
------16----------------------------|
--17--------------------------------|
------------------------------------|
------------------------------------|


                                                                      
----------------------------------|----------------------------------|
----------------------------------|----------------------------------|
--17------14--17/-16------12--16/-|--14------11--14------11--12--14/-|
------14--------------12----------|------12----------12--------------|
----------------------------------|----------------------------------|
----------------------------------|----------------------------------|


                                                                
--------------------------------|------------------------------|
--------------------------------|------------------------------|
--16------12--16/-14------11----|--12--11----------------------|
------12--------------12--------|----------14--12--------------|
--------------------------------|------------------14------12--|
--------------------------------|------------------------------|


                                                                      
----------------------------------|------------------10--------------|
----------------------------------|----------------------------------|
--17------14--17/-16------12--16/-|--14------11--14----------11--14/-|
------14--------------12----------|------12--------------12----------|
----------------------------------|----------------------------------|
----------------------------------|----------------------------------|

[ Tab from: http://www.guitartabs.cc/tabs/j/johnson_eric/cliffs_of_dover_tab.html ]
                                                              
--------------------------------|----------------------------|
--------------------------------|-------------------------7--|
--16------12--16/-14------11----|--12--11--9-----------7-----|
------12--------------12--------|-------------9--7--7--------|
--------------------------------|----------------------------|
--------------------------------|----------------------------|


                                                       
--------------------------|---------------------------|
--8-----8----------8------|---------8-----------------|
--0-----------------------|------0-----------0--------|
--12-------10---------10h-|--12--------10-------10----|
--------------------------|---------------------------|
--------------------------|---------------------------|


                                                      
--------------------------|--------------------------|
--8-----8----------8------|---------8----------------|
--0-----------------------|------0-------------------|
--12-------10---------10h-|--12--------10------10----|
--------------------------|--------------------------|
--------------------------|--------------------------|


                                                   
--14--17--12--------------------------------------|
--------------15--12------15r-15--12--10------12--|
----------------------14------------------11------|
--------------------------------------------------|
--------------------------------------------------|
--------------------------------------------------|


                                              
---------------------------------------------|
--10-----------------------------------------|
------11--9-------11-9-----------------------|
-------------12-9------12--9-----------------|
------------------------------12--9----------|
-------------------------------------12--10--|


                                                     
-------------------------|--------------------------|
-------8----------8------|---------8----------------|
--0----------------------|------0-------------------|
--0-------10---------10h-|--12--------10------10----|
-------------------------|--------------------------|
-------------------------|--------------------------|


                                                    
----------------------------|---------------7------|
-----------8----10----12/10-|----8----10-----------|
--7--7--9-------------------|----------------------|
----------------------------|----------------------|
----------------------------|----------------------|
----------------------------|----------------------|


                                                    
-------------------------|-------------------------|
--8----8----------8------|--------8----------------|
--0----------------------|-------------------------|
--0-------10---------10h-|--12-------10------10----|
-------------------------|-------------------------|
-------------------------|-------------------------|


                                                      
---------------------8-12h10-|-------8h7-------------|
-----------8----10-----------|-----------8-----------|
--7--7--9--------------------|-----------------9--7--|
-----------------------------|-----------------------|
-----------------------------|-----------------------|
-----------------------------|-----------------------|


                                                      
------------------------|----------------------------|
--8~-------------8------|----------8-----------------|
-----------0------------|----------------------------|
-----------10-------10h-|--12--10--12--10------10----|
------------------------|----------------------------|
------------------------|----------------------------|


                                                    
----------------------------|---------------7------|
-----------8----10----12/10-|----8----10-----------|
--7--7--9-------------------|----------------------|
----------------------------|----------------------|
----------------------------|----------------------|
----------------------------|----------------------|


                                                      
--10----------------------|--------------------------|
--8-----8----------8------|---------8----------------|
--0-----------------------|------0-------------------|
--0--------10---------10h-|--12--------10----10------|
--------------------------|--------------------------|
--------------------------|--------------------------|


                                                       
--------------------------|---------------------------|
--8-----8----------8------|------12--10r--------------|
--0-----------------------|----------------12--9--12--|
--12-------10---------12--|---------------------------|
--------------------------|---------------------------|
--------------------------|---------------------------|


                                                              
-------------------------------|-----------------------------|
-------10------10------10------|--------12--10r--------------|
----0--------------------------|------------------12--9--12--|
-----------10------10------12--|----10-----------------------|
-------------------------------|-----------------------------|
-------------------------------|-----------------------------|


                                                          
-------------------------------|-------------------------|
-------10------10------10------|--------12--8r-----------|
----0--------------------------|-----------------12------|
-----------10------10------12--|----10-------------------|
-------------------------------|-------------------------|
-------------------------------|-------------------------|


                                                          
----------------------------10--|------------12----------|
------10--12--13----10--12--10--|----12--10--13----------|
--------------12------------12--|------------12----------|
--12----------10----------------|------------------------|
--10----------------------------|------------------------|
--8-----------------------------|------------------------|


                                                                      
-------------------|------------------------|------------------------|
--8----------------|--10--------------------|------------------------|
--7----------------|--7---------------------|--14~---------------12--|
--0----------------|--0-----------------14--|----------------14------|
-------------------|----------------12------|------------------------|
-------------------|------------------------|------------------------|


                                                              
----------------------10h-|--12--------10--12h10-------10----|
--------------------------|----------------------12h10----12-|
--14r-----12~-------------|----------------------------------|
------------------14------|----------------------------------|
--------------------------|----------------------------------|
--------------------------|----------------------------------|


                                                                     
---------------------------------|----------------------------------|
--10-----------------------------|----15--17--17--20----19----20----|
------12--9--12----------14--17--|----------------------------------|
---------------------14----------|----------------------------------|
---------------------------------|----------------------------------|
---------------------------------|----------------------------------|


                                                              
--------------------------17----------|----------------------|
--19----------------19----------20----|--19r-----------17~---|
--------------17----------------------|----------------------|
--------------------------------------|----------------------|
--------17----------------------------|----------------------|
--------------------------------------|----------------------|


                                                      
----------------------|------------------------------|
----------------------|------------------------------|
----------------------|------------------------------|
----------------------|--5/7---------7----9----10----|
---------5h-7------5--|------------------------------|
--x-------------------|------------------------------|


                                                           
-------------------------|--------------------------------|
--8~---------10~---------|--12------12/-13--15----15h-17--|
-------------------------|--------------------------------|
---------12----------14--|------14------------------------|
-------------------------|--------------------------------|
-------------------------|--------------------------------|


                                                        
----------------------------|--------------------------|
--15/-----------------12----|--------------------------|
--------14--12--12----------|--14----------------------|
----------------------------|--------14----------------|
----------------------------|------------15------------|
----------------------------|--------------------15----|


                                                      
--------------------------|--------------14~---------|
--------------15~---------|----------12--------------|
----------14--------------|--------------------------|
------12------------------|--12--14------------------|
--------------------------|--------------------------|
--14----------------------|--------------------------|


                                           
----------------------15--19~---15--19h15-|
--------------15--17----------------------|
----------16------------------------------|
--14--17----------------------------------|
------------------------------------------|
------------------------------------------|


                                                  
--17--15-----------------------------------------|
----------17--15------17--15------------------17-|
------------------17----------17--14-------------|
--------------------------------------17-14-x----|
-------------------------------------------------|
-------------------------------------------------|


                                               
-------------------------------------------15-|
--15--15-17-20h-15----------------------------|
--------------------16--14----16-14-----------|
---------------------------17-------17-14-----|
----------------------------------------------|
----------------------------------------------|


                                            
--14h-10-----------------------------------|
-------------------------------------------|
----------14--12----------11h9-9h7---------|
------------------14--12-----------9-7-9-7-|
-------------------------------------------|
-------------------------------------------|


                                                       
---------------------------|--12----------------------|
---------------------------|------15--12--13----------|
---------------------------|--------------------------|
---------------------------|--------------------------|
--10--7--------------------|--------------------------|
---------10--7h-0----------|--------------------------|


                                                                      
------------------------------|--------------------------------------|
--15--13--12--------------12--|--------13----------15----------17----|
--------------14----14--------|--16----------17----------19----------|
------------------------------|--------------------------------------|
------------------------------|--------------------------------------|
------------------------------|--------------------------------------|


                                                          
--------------19------15----|--------15----15--------15--|
--17--19h-20----------------|--19----------------19------|
----------------------------|----------------------------|
----------------------------|----------------------------|
----------------------------|----------------------------|
----------------------------|----------------------------|


                                                   
------15------15------15------15------15------15--|
----------------------------------17------19------|
--19----------------------17----------------------|
----------19------17------------------------------|
--------------------------------------------------|
--------------------------------------------------|


                                             
------15------15------15--------15----------|
------------------17------19----------19----|
--19------17--------------------------------|
--------------------------------------------|
--------------------------------------------|
--------------------------------------------|


                                                              
--17--19/-20--19------------|--------------------------------|
----------------------------|------------------15--17--------|
----------------------------|--------------16----------------|
----------------------------|------14--17--------------------|
------------------------14--|--15------------------------18--|
----------------------------|--------------------------------|


                                                        
----------------------16--17----|--19~-----------20----|
--------------16--17------------|----------------------|
----------17--------------------|----------------------|
--16--19------------------------|----------------------|
--------------------------------|----------------------|
--------------------------------|----------------------|


                                                              
--20b---------------------|----------------------------------|
--------------------------|----------------------------------|
--------------------------|--17------14--17/-16------12--16/-|
--------------14/-12/-14--|------14--------------12----------|
--------------------------|----------------------------------|
--------------------------|----------------------------------|


                                                                      
----------------------------------|----------------------------------|
----------------------------------|----------------------------------|
--14------11--14------11--12--14/-|--16------12--16/-14------11--14--|
------12----------12--------------|------12--------------12----------|
----------------------------------|----------------------------------|
----------------------------------|----------------------------------|


                                                                
----------------------------|----------------------------------|
----------------------------|----------------------------------|
--12--11--------------------|--17------14--17/-16------12--16/-|
----------14--12------------|------14--------------12----------|
------------------14~-------|----------------------------------|
----------------------------|----------------------------------|


                                                              
--------------------12------|----------------------------12--|
----------15b-----------14b-|--------------------12--15------|
--14------------------------|----14r-14--12--14b-------------|
------12--------------------|--------------------------------|
----------------------------|--------------------------------|
----------------------------|--------------------------------|


                                                                
------14--15--17--19~-------|--20------17--20/-19------15--19/-|
--17------------------------|------17--------------15----------|
----------------------------|----------------------------------|
----------------------------|----------------------------------|
----------------------------|----------------------------------|
----------------------------|----------------------------------|


                                                                    
--17------14--17------14--15--17/-|--19------15--19/-17------14----|
------15----------15--------------|------15--------------15--------|
----------------------------------|--------------------------------|
----------------------------------|--------------------------------|
----------------------------------|--------------------------------|
----------------------------------|--------------------------------|


                                                              
--15--14--12----------------|--------------------------------|
--------------15------------|--------------------------------|
------------------16~-------|--17------14--17/-16------12----|
----------------------------|------14--------------12--------|
----------------------------|--------------------------------|
----------------------------|--------------------------------|


                                                                  
--14h17h14--------------------|----------------------------------|
-----------15-----------------|----------------------------------|
--------------14--------------|--16------12--16/-14------11--14/-|
-----------------0---0--------|------12--------------12----------|
------------------------------|----------------------------------|
------------------------------|----------------------------------|


                                                        
----------------------------|--------------------------|
-------------------------7--|--8-----------8-----------|
--12--11--9-----------7-----|-----7h-0--0-----9h-0--0--|
-------------9/-7--7--------|--------------------------|
----------------------------|--------------------------|
----------------------------|--------------------------|


                                                     
---------------------------|------------------------|
--8------------8-----------|--8-----------8---------|
-----11h-0--0-----9h-0--0--|-----7h-0--0---------7--|
---------------------------|------------------------|
---------------------------|------------------------|
---------------------------|------------------------|


                                                     
--8--8h-7-----10---------|--------------------------|
-----------8-------------|--8-----------8-----------|
----------------------0--|-----7h-0--0-----9h-0--0--|
-------------------------|--------------------------|
-------------------------|--------------------------|
-------------------------|--------------------------|


                                                              
------------------------|------------15-------15-20/19-15----|
--8------------8--------|--18b----------15-17-------------17-|
-----11h-0--0-----------|------------------------------------|
------------------------|------------------------------------|
------------------------|------------------------------------|
------------------------|------------------------------------|


                                                   
--17-15----15-14----------15-14-------12----12----|
--------17-------17-15-13-------15-14----15----15-|
--------------------------------------------------|
--------------------------------------------------|
--------------------------------------------------|
--------------------------------------------------|


                                                                    
-------------------------10-12----|--------------------------------|
--13-12---------------12-------12-|--10----------------------------|
--------14-12/10-14b--------------|-----12-9-------------12--------|
----------------------------------|----------12-9--------12--------|
----------------------------------|---------------12h10------------|
----------------------------------|--------------------------------|


                                       
------------------|------------------||
------------------|------------------||
------------------|------------------||
------------------|------------------||
------------------|------------------||
------------------|------------------||


Comments