Johnny Thunders - I Wanna Be Loved Chords & Tabs

 

I Wanna Be Loved Chords & Tabs

Johnny Thunders Chords & Tabs

Version: 1 Type: Tab 0 ratings
1 star 2 stars 3 stars 4 stars 5 stars
comments

I Wanna Be Loved Tab

   
Johnny Thunders
I Wanna Be Loved
L.A.M.F.

Verse:(GG FF G)

e|-----------------------------------------------------------------------------------|
B|-----------------------------------------------------------------------------------|
G|-----------------------------------------------------------------------------------|
D|-5-5-3-3-5-------------------------------------------------------------------------|
A|-5-5-3-3-5-------------------------------------------------------------------------|
E|-3-3-1-1-5-------------------------------------------------------------------------|


*This chord progretion is played throughout the verse and solo.
[ Tab from: http://www.guitartabs.cc/tabs/j/johnny_thunders/i_wanna_be_loved_tab.html ]
Choris:
E|-----------------------------------------------------------------------------------|
B|-----------------------------------------------------------------------------------|
G|-----------------------------------------------------------------------------------|
D|-5-7-5-7-5-7-5-7-------------------------------------------------------------------|
A|-3-3-3-3-3-3-3-3-5-7-5-7-5-7-5-7---------------------------------------------------|
E|------------------3-3-3-3-3-3-3-3--------------------------------------------------|


E|-----------------------------------------------------------------------------------|
B|-----------------------------------------------------------------------------------|
G|-----------------------------------------------------------------------------------|
D|-5-7-5-7-5-7-5-7-------------------------------------------------------------------|
A|-3-3-3-3-3-3-3-3-5-7-5-7-5-7-5-7---------------------------------------------------|
E|------------------3-3-3-3-3-3-3-3--------------------------------------------------|


E|-----------------------------------------------------------------------------------|
B|-----------------------------------------------------------------------------------|
G|-----------------------------------------------------------------------------------|
D|-5-7-5-7-5-7-5-7-----------------------7-7-7-7-7-----------------------------------|
A|-3-3-3-3-3-3-3-3-5-7-5-7-5-7-5-7------5-5-5-5-5------------------------------------|
E|------------------3-3-3-3-3-3-3-3--------------------------------------------------|


*I'm pretty shure that this is corect. Listen to the song to get the right timeing,


Tabs by Johnny Volume (Jake)
rockajt@yahoo.com
Comments