Johnny Thunders - All By Myself Chords & Tabs

 

All By Myself Chords & Tabs

Johnny Thunders Chords & Tabs

Version: 1 Type: Tab 0 ratings
1 star 2 stars 3 stars 4 stars 5 stars
comments

All By Myself Tab

   
Johnny Thunders
All By Myself
L.A.M.F.

Intro: Long E chord ring
Verse:(EE GG CC)
[ Tab from: http://www.guitartabs.cc/tabs/j/johnny_thunders/all_by_myself_tab.html ]
E|-----------------------------------------------------------------------------------|
B|-----------------------------------------------------------------------------------|
G|----------5-5----------------------------------------------------------------------|
D|-2-2-5-5-5-5-----------------------------------------------------------------------|
A|-2-2-5-5-3-3-----------------------------------------------------------------------|
E|-0-0-3-3---------------------------------------------------------------------------|


CHorus:

e|-----------             e|-------------|
B|----------              B|-------------|
G|----------              G|-------------|
D|-7-5-7-7-- then 3 times D|-7-9-9-9-----|
A|-5-3-7-7--              A|-7-9-7-7-----|
E|-----5-5--              E|-5-7---------|

Bridge:

e|-------------------|
B|-------------------|
G|-------------------|
D|-2-2-2-2-5-2-------|
A|-2-2-2-2-5-2-------|
E|-0-0-0-0-3-0-------|


By Johnny Volume (jake)
and Dave=L.A.M.F.
Comments