Johnny Rzeznik - Wish You Were Here Chords & Tabs

 

Wish You Were Here Chords & Tabs

Johnny Rzeznik Chords & Tabs

Version: 1 Type: Tab 0 ratings
1 star 2 stars 3 stars 4 stars 5 stars
comments

Wish You Were Here Tab

   
Artist Name: Fred Durst feat Johnny Reznick
Song Name: Wish You Were Here

Tune down the guitar to c# G# E B F# c#

Riff:
     
C#:----------------|--3---3-3-3--|-------------|--3---3-3-3----|
G#:----------------|--3---3-3-3--|-------------|--3---3-3-3----|
E :----------------|--0---0-0-0--|-----0-------|--0---0-0-0----|
B :----------0--2--|--2---2-2-2--|--2-----2--0-|--0---0-0-0----|
F#:-----0H2--------|-------------|-------------|---------------|
C#:--3-------------|-------------|-------------|---------------|
Play it two times

C#:----------------|--3---3-3-3--|--------------|--3--3-3-3--------|
G#:----------------|--3---3-3-3--|--------------|--3--3-3-3--------|
E :----------------|--0---0-0-0--|--------------|--0--0-0-0--------|
B :----------0--2--|--2---2-2-2--|--2--0--------|--0--0-0-0--------| X2
F#:-----0H2--------|-------------|--------2--0--|------------------|
C#:--3-------------|-------------|--------------|------------------|
Play it two times

e:-------------3-
B:-------------3-
G:-------------0-
D:----------0--0-
A:-----0H2-----2-
E:--3----------3-


Intro: Riff
[ Tab from: http://www.guitartabs.cc/tabs/j/johnny_rzeznik/wish_you_were_here_tab.html ]
C/G                       D
So, so you think you can tell
             Am                    G
Heaven from hell, blue skies from pain
                      D
Can you tell a green field 
                  C/G                   Am
From a cold steel rail, a smile from a veil
                          G
Do you you think you can tell?
C/G                       D
So, do you think we can change
                  Am
ev'ry body that hates
                G
before it's to late
                 D
So proud to be free
           C/G
who can we blame
             Am
don't be ashemmed
                      G
Do you think we can change


Riff


C/G                              D
How I wish, how I wish you were here
            Am          
We're just two lost souls swimming in a fish bowl 
G
Year after year 
D
Running over the same old ground 
C/G
What have we found? 
              Am
The same old fears
              G 
Wish you were here 
C/G                D
Whitle me in ???? pain
         Am
we just need to remain on the very same page
G
so much to gain
D
no more loosing a friend
            C/G
loosing our self
                   Am
we just need your help
             G
so glad your here

Riff
              G
so glad your here


Contributed by: Lauge1@ofir.dk
Comments