Johnny Rzeznik - Always Know Where You Are Chords & Tabs

 

Always Know Where You Are Chords & Tabs

Johnny Rzeznik Chords & Tabs

Version: 2 Type: Tab 0 ratings
1 star 2 stars 3 stars 4 stars 5 stars
comments

Always Know Where You Are Tab

Song: Always know where you are
By: Johnny R
Tabbed by: Mike

 The other tab for this song is good and all, but this is a good way to play it with
only one guitar.

NOTE: Don't rely on my attempt of a strum pattern. This is just to give you an idea of
how to play it. Listen to the song.
[ Tab from: http://www.guitartabs.cc/tabs/j/johnny_rzeznik/always_know_where_you_are_tab_ver_2.html ]
Intro/Chorus          
e|-3-3-33-0-0-0h1-1-1-0-------0---1--3-----|
B|-1-1-11-1-1-1-1-1-1-1----3--0---1--3-----|
G|-0-0-00-0-0-0-0-0-0-0----x--0---2--4-----| // for chorus you might want to
D|-2-2-22-2-2-2-2-2-2-2--2-3--5---3--5-----| // hit the bottom sting open
A|-3-3-33-3-3-3-3-3-3-3--3-3--5---3--5-----|                         |
E|--(0)------------------0-1--3---1--3-----|                         |
      ^                                                             /
Verse  \___________________________________________________________/
e|----------------------------------------------------|
B|----------------------------------------------------|
G|----------------------------------------------------|
D|-10-x-10-xx-10--\-5-5-xx--10-x-10-xx-10--\-3-3-xx---|
A|-10-x-10-xx-10--\-5-5-xx--10-x-10-xx-10--\-3-3-xx---|
E|-8--x-8--xx-8---\-3-3-xx--8--x-8--xx-8---\-1-1-xx---|

e|--------------------------5555--3-3--------------|
B|--------------------------5555--3-3--------------|
G|--------------------------5555--4-4--------------|
D|-10-x-10-xx-10--\-5-5-xx--7777--5-5--------------|
A|-10-x-10-xx-10--\-3-3-xx--7777--5-5--------------|
E|-8--x-8--xx-8---\-3-3-xx--5555--3-3--------------|

Pre-chorus/Bridge
e|---------1---0---3-----------1---3-------|
B|-1---0---1---1---3---1---0---1---3-------| // If you want you can play   
G|-2---0---2---0---0---2---0---2---0-------| // all strings. It's really up
D|-2---2---3---2---0---2---2---3---0-------| // to you :)
A|-0---2-------3---x---0---2-------x-------|
E|-----0-----------3-------0-------3-------|

Outro
Just end on a c chord And you're good.



Any questions, etc.? email -> me_mike12@hotmail.com
Comments