Johnny Rivers - Secret Agent Man Chords & Tabs

 

Secret Agent Man Chords & Tabs

Johnny Rivers Chords & Tabs

Version: 1 Type: Bass Tab 0 ratings
1 star 2 stars 3 stars 4 stars 5 stars
comments

Secret Agent Man Bass Tab

Listen to the song to get the feel right.  It kinda has a staccato feel.

VERSE/BRIDGE:
G-------------------------------------------------------------
D-------------------------------------------------------------
A-------------------------------2--01-------------------------
E-3-012-3-012-3-012-3-012-3-012---3----3-012-3-012-3-012-3-012
[ Tab from: http://www.guitartabs.cc/tabs/j/johnny_rivers/secret_agent_man_btab.html ]
G-------------------------------------------------------------
D-------------------------------------------------------------
A-2--01--2--01--------------2--01--2--30--------2--01--2--01--
E---3------3---3-012-3-012----3------3---3-012----3------3---3

CHORUS: (~=LET NOTE RING)
G-----------------------------------------------------
D--9-9---10-9----9-9---10-9--------9~------7~------5~--
A-7-7-7~-----7--7-7-7~-----7---7~------5~------3~------
E-----------------------------------------------------

OUTRO:
G------------------------------------------
D------------------------------------------
A----------------------------------------2-
E-3-012-3-012-3-012-3-012-3-012-3-012--3---
Comments