Johnny Q Public - Women Of Zion Chords & Tabs

 

Women Of Zion Chords & Tabs

Johnny Q Public Chords & Tabs

Version: 2 Type: Bass Tab 0 ratings
1 star 2 stars 3 stars 4 stars 5 stars
comments

Women Of Zion Bass Tab

Women of Zion
Johnny Q. Public
Tabbed by: Harrelljc@aol.com

i picked this out from a video of jqp live, so it'll be different than on the
cd. also, i play it with a pick, so it's supposed to go fairly fast...not
dragging along--u dig?
so here it goes:
(*NOTE:nothing is played on the d or g strings)

intro:
a--------6-6------4-4------6-6------4-4------6-6------4-4------6-6------4-4----------------------------------
e---4-4------4-4------4-4------4-4------4-4------4-4------4-4------4-4-------2-2-2-2-2-2-2-2--1-1-1-1-0-0-0-0
[ Tab from: http://www.guitartabs.cc/tabs/j/johnny_q_public/women_of_zion_btab_ver_2.html ]
verses:
a--------6-6------4-4-------6-6------4-4------6-6------4-4------6-6------4-4-----6-6-------4-4-----6-6------4-4------
e---4-4------4-4------4-4------4-4------4-4------4-4------4-4------4-4------4-4------4-4------4-4------4-4-----------

e--2-2-2-2-2-2-2-2--1-1-1-1-0-0-0-0

chorus: 
a--------------------------------------2-2-2-2-2-2-2-2-------------------------------------2-2-2-2-2-2-2-2-2------------------------a--2(hold)
e---2-2-2-2-2-2(<-hold 2 beats)--2-4--------------------2-2-2-2-2-2(<-hold 2 beats)--2-4--------------------------4-4-4-4-4-4--2-4--

bridge/channel:
a-------13--11----13--11----13--11----13--11
e---11--------11---------11--------11-------

e--2-2-2-2-2-2-2-2-1-1-1-1-0-0-0-0--<3 times

ending:
a-------6-6------4-4------6-6-------4-4-------6-6-----4-4-------6-6-----4-4---
e--4-4------4-4------4-4------4-4-------4-4------4-4------4-4------4-4------4(hold)

i hope this makes sense...if not, just email me.
Jesus rawx.Satan sux.
i love God,
staci harrell
Comments