Johnny Hobo And The Freight Trains - No Trespassing Waltz Chords & Tabs

 

No Trespassing Waltz Chords & Tabs

Johnny Hobo And The Freight Trains Chords & Tabs

Version: 1 Type: Tab

No Trespassing Waltz Tab

Johnny Hobo And The Freight Trains
"No Trespassing" Waltz
"All Power To The Wingnuts!" EP


intro verse
"and its true that we're teenage fools..."
e------------------------------|
b------------------------------|
g-10---------------------------|
d-10------10------12--------8--|
a-8-------10------12--------8--|
e---------8-------10--------6--|
strummed once each for the first time
the second time you play this stum the 101212 to 688 5 times each

"and call these crack in the system a revolution"
e----------------------------------|
b----------------------------------|
g-10-------------------------------|
d-10-8x's-10------12------8--------|
a-8-------10-8x's-12-8x's-8-8x's---|
e---------8-------10------6--------|

"what have you been up to since the soviet union"
e--------------------------------------------------|
b--------------------------------------------------|
g-10-x-x-x-x----x-x-x-x-----x-x-x-x----x-x-x-x-----|
d-10-x-x-x-x-10-x-x-x-x--12-x-x-x-x-8--x-x-x-x-----|
a-8--x-x-x-x-10-x-x-x-x--12-x-x-x-x-8--x-x-x-x-----|
e----x-x-x-x-8--x-x-x-x--10-x-x-x-x-6--x-x-x-x-----|
[ Tab from: http://www.guitartabs.cc/tabs/j/johnny_hobo_and_the_freight_trains/no_trespassing_waltz_tab.html ]
"when your not starving, life is just the mechanics of eating"
e----------------------------------|
b----------------------------------|
g-10-------------------------------|
d-10-8x's-10------12------8--------|
a-8-------10-8x's-12-8x's-8-8x's---|
e---------8-------10------6--------|
*play palm muted*


fast part (part without vocals)

e----------------------------------------------|
b----------------------------------------------|
g-10-x-x-x-x-10-x-x-x-x--10-x-x-x-x------------|
d-10-x-x-x-x-10-x-x-x-x--10-x-x-x-x-10-8-------|
a-8--x-x-x-x-8--x-x-x-x--8--x-x-x-x-10-8-------|
e----x-x-x-x----x-x-x-x-----x-x-x-x-8--6-------|


"talking to you is..."
e----------------------------------|
b----------------------------------|
g-10-------------------------------|
d-10-8x's-10------12------8--------|
a-8-------10-8x's-12-8x's-8-8x's---|
e---------8-------10------6--------|

It repeats its self, not hard at all to figure out, these are jsut the main
Have fun.

If you have any questions or comments, or need Johnny Hobo mp3's email me at
jesusthebrokebackcowboy@yahoo.com

www.johnnyhobo.com