Johnny Eat The Salmon Alive - Circus Song Chords & Tabs

 

Circus Song Chords & Tabs

Johnny Eat The Salmon Alive Chords & Tabs

Version: 1 Type: Bass Tab 0 ratings
1 star 2 stars 3 stars 4 stars 5 stars
comments

Circus Song Bass Tab

Bass Tablature for The Circus Song by Johnny Eat The Salmon Alive

G--------0h1---------3/4---
D-------------0------------       
A----------------1h2-------              1-verse
E--0-----------------------
   S     P    P  P   P
[ Tab from: http://www.guitartabs.cc/tabs/j/johnny_eat_the_salmon_alive/circus_song_btab.html ]
G----------------1--------------
D----------------2--------------
A-------------------------------         2-chorus
E--3-3--6-6-----3-3-6-5-4v----
                 P*

S-Slap
P-Pop
h-Hammer
v-Vibrato
/-Slide up
Slide down


*This is a chord, obviously. It is and E Major, and it does it kind 
of fast so it might be hard.

4/4Time signature, played fast and it sounds funkaaay!

Standard Tuning-EADG

JETSA RULES!
Comments