Johnny Cash - Walk The Line Chords & Tabs

 

Walk The Line Chords & Tabs

Johnny Cash Chords & Tabs

Version: 1 Type: Tab

Walk The Line Tab

----------------------------------------------------------------|
--------------3-----3-----------------2-----2-------------------|
--------------2-----2-----------------2-----2-------------------|
-----------0--0-----0--0--0-----------2-----2-------------------|
--0--2--4--------0-----------4--2--0-----------0--0-------------|
-----------------------------------------0-----------4--2-------|

[ Tab from: http://www.guitartabs.cc/tabs/j/johnny_cash/walk_the_line_tab.html ]
------------------------------------------------------------------|
----------------------------2----2--------------------------------|
----1-----1-----------------2----2--------------------------------|
----2-----2-----------------2----2--------------------------------|
----2-----2--------------0----------0-----------------------------|
-0-----0-----0--0--2--4--------0----------------------------------|