Johnny Cash - Tennise Flat Top Box Chords & Tabs

 

Tennise Flat Top Box Chords & Tabs

Johnny Cash Chords & Tabs

Version: 1 Type: Tab

Tennise Flat Top Box Tab

|----------------------------------|
|----------------------------------|
|----------------------------------|
|---------0----------0----------0--|
|-0-0-2-4----0-0-2-4----0-0-2-4----|
|----------------------------------|

|---------------------------------------|                                  
|------------------2---2----------------|
|---2-2----------1/2-1/2-2-2-2-0--------|
|-4-----4-5-4-2------------------4-2-0--|
|---------------------------------------|
|---------------------------------------|
[ Tab from: http://www.guitartabs.cc/tabs/j/johnny_cash/tennise_flat_top_box_tab.html ]
|---------------------------------|
|---------------------------------|
|---------------------------------|
|---------0----------0---------0--                                          
|-0-0-2-4----0-0-2-4---0-0-2-4----|
|---------------------------------|

|----------------------------------------------------------------|
|-----------------2---2------------------------------------------|
|---2-2---------1/2-1/2-2-2-2-0----------------------------------|
|-4-----4-5-4-2-----------------4-2-0---------2h4p2h4p2----------|
|-------------------------------------4-2-0-------------0--------|
|----------------------------------------------------------------|


this tab was subited by nib-lit.