Johnny Cash - San Quentin Chords & Tabs

 

San Quentin Chords & Tabs

Johnny Cash Chords & Tabs

Version: 1 Type: Tab 0 ratings
1 star 2 stars 3 stars 4 stars 5 stars
comments

San Quentin Tab

Johnny Cash - San Quentin Basstab

Guitar solo played by Bob Wootton
I used the DVD "Johnny Cash - Live at Montreux 1994" to write the
Following TAB. Hey guys this is perfect.
[ Tab from: http://www.guitartabs.cc/tabs/j/johnny_cash/san_quentin_tab.html ]
e|------------------------------------------------------|
B|------------------------------------------------------|
G|------------------------------------------------------|
D|------------------------------------------------------|
A|-----0-000-2-20-2-4---0-----0-000-2-24-2-0--2-4-0---|
E|-0-0-----------------0---0-0--------------------------|

e|------------------------------------------------------|
B|------------------------------------------------------|
G|------------------------------------------------------|
D|-2-3-4-44-42-4--2-0-----------------------------------|
A|----------------------4---0-----0-00-0-2-24-2-0---0---|
E|------------------------0---0-0-----------------0---0-|

TAB by Andreas Bauer, Germany
Comments