Johnny Cash - Rusty Cage Chords & Tabs

 

Rusty Cage Chords & Tabs

Johnny Cash Chords & Tabs

Version: 1 Type: Tab

Rusty Cage Tab

Rusty Cage by Johnny Cash
Tabbedby mrFood

Main Riff:
e|--------------|
B|--------------|
G|--2--2-2------|
D|--2--2-2------|
A|--0--0-0------|
E|---------0-3--|
[ Tab from: http://www.guitartabs.cc/tabs/j/johnny_cash/rusty_cage_tab.html ]
Chorus-ish thing:
e|-----------|
B|-----------|
G|------2----|
D|--0---2----|
A|--x---0----|
E|--3--------|

"...my rusty cage..."
e|--------3--|
B|--------3--|
G|--------0--|
D|------2-0--|
A|--0-3------|
E|-----------|

Other Riff:
e|---------------------|
B|---------------------|
G|---------------------|
D|--2--2-2---2----2----|
A|--2--2-2---2----2-0--|
E|--0--0-0-3-0--3-0-0--|