Johnny Cash - Personal Jesus Chords & Tabs

 

Personal Jesus Chords & Tabs

Johnny Cash Chords & Tabs

Version: 1 Type: Tab

Personal Jesus Tab

   
----------------------------------------------------------------------------
			     Personal Jesus - Johnny Cash
----------------------------------------------------------------------------
Me and this kick ass Guitarist figured this out while working at the kool music shop.  
listen to to the song to get the rythem down cause I know this should be really close to perfect.
Tabbed by:  Chester{Fatty}
Email:  GroovyMan_1@hotmail.com

Tuning: EADGBe

Intro x2
e|--------------------------------------------------------------------------|
B|--------------------------------------------------------------------------|
G|--------------------------------------------------------------------------|
D|-2-------2-----2---2------2--------2--------2----2-----2-----2------------|
A|-2-----2-------2---2---2-----------2------2------2-----2---2--------------|
E|-0---3-0-----3-0---0-3-0-----3-----0----3-0----3-0-----0-3-0----3---------|

Verse A x2
e|--------------------------------------------------------------------------|
B|--------------------------------------------------------------------------|
G|--------------------------------------------------------------------------|
D|-2-------2-----2---2-----2---------2--------2----2-----2-----2------------|
A|-2-----2-------2---2---2-----------2------2------2-----2---2--------------|
E|-0---3-0-----3-0---0-3-0-----3-----0----3-0----3-0-----0-3-0----3---------|

e|--------------------------------------------------------------------------|
B|----------------------------------------------1---------------------------|
G|----------------------------------------2-------2----------0--------3-----|
D|-2-------2-----2---2-----2------------------------2--------0--------4-----|
A|-2-----2-------2---2---2-----------0--------0-----------2--2-----4--4-----|
E|-0---3-0-----3-0---0-3-0-----3-----------------------3-----3---2----2-----|

Bridge like thingy
e|--------------------------------------------------------------------------|
B|--------------------------------------------------------------------------|
G|--------------------------------------------------------------------------|
D|-2-------2-----2---2-----2---------2--------2----2-----2-----2------------|
A|-2-----2-------2---2---2-----------2------2------2-----2---2--------------|
E|-0---3-0-----3-0---0-3-0-----3-----0----3-0----3-0-----0-3-0----3---------|

Verse B x2
e|-----------------------------------3----3---3---3---3---3---3-------------|
B|-----------------------------------0----0---0---0---0---0---0-------------|
G|-----------------------------------0----0---0---0---0---0---0-------------|
D|-2-------2-----2---2-----2---------0----0-----------0-------0-------------|
A|-2-----2-------2---2---2-----------2----2-----------2-------2-------------|
E|-0---3-0-----3-0---0-3-0-----3-----3----3-----------3-------3-------------|

e|-0----0---0---0---0---0----0----0---0---0---0---0---0---------------------|
B|-1----1---1---1---1---1----1----1---1---1---1---1---1-------0-0---1-1-----|
G|-2----2---2---2---2---2----0----0---0---0---0---0---0-------0-0---0-0-----|
D|-2----2-----------2--------2----2-----------2-------2-------2-2-2-2-2-----|
A|-0----0-----------0--------0----0-----------0-------0---2---2-2-3---------|
E|--------------------------------------------------------0-----------------|

Chorus x2
e|--------------------------------------------------------------------------|
B|--------------------------------------------------------------------------|
G|--------------------------------------3--3---------2--2-----2-------------|
D|-2-------2-----2---2-----2------------4--4---------3--3-----3-------------|
A|-2-----2-------2---2---2----------4-4-4--4---------3--3-----3-------------|
E|-0---3-0-----3-0---0-3-0-----3----2-2-2--2---2-2---1--1-----1-------------|
[ Tab from: http://www.guitartabs.cc/tabs/j/johnny_cash/personal_jesus_tab.html ]
Bridge like thingy
e|--------------------------------------------------------------------------|
B|--------------------------------------------------------------------------|
G|--------------------------------------------------------------------------|
D|-2-------2-----2---2-----2---------2--------2----2-----2-----2------------|
A|-2-----2-------2---2---2-----------2------2------2-----2---2--------------|
E|-0---3-0-----3-0---0-3-0-----3-----0----3-0----3-0-----0-3-0----3---------|

Verse A x2
e|--------------------------------------------------------------------------|
B|--------------------------------------------------------------------------|
G|--------------------------------------------------------------------------|
D|-2-------2-----2---2-----2---------2--------2----2-----2-----2------------|
A|-2-----2-------2---2---2-----------2------2------2-----2---2--------------|
E|-0---3-0-----3-0---0-3-0-----3-----0----3-0----3-0-----0-3-0----3---------|

e|--------------------------------------------------------------------------|
B|----------------------------------------------1---------------------------|
G|----------------------------------------2-------2----------0--------3-----|
D|-2-------2-----2---2-----2------------------------2--------0--------4-----|
A|-2-----2-------2---2---2-----------0--------0-----------2--2-----4--4-----|
E|-0---3-0-----3-0---0-3-0-----3-----------------------3-----3---2----2-----|

Bridge like thingy
e|--------------------------------------------------------------------------|
B|--------------------------------------------------------------------------|
G|--------------------------------------------------------------------------|
D|-2-------2-----2---2-----2---------2--------2----2-----2-----2------------|
A|-2-----2-------2---2---2-----------2------2------2-----2---2--------------|
E|-0---3-0-----3-0---0-3-0-----3-----0----3-0----3-0-----0-3-0----3---------|

Verse B x1
e|-----------------------------------3----3---3---3---3---3---3-------------|
B|-----------------------------------0----0---0---0---0---0---0-------------|
G|-----------------------------------0----0---0---0---0---0---0-------------|
D|-2-------2-----2---2-----2---------0----0-----------0-------0-------------|
A|-2-----2-------2---2---2-----------2----2-----------2-------2-------------|
E|-0---3-0-----3-0---0-3-0-----3-----3----3-----------3-------3-------------|

e|-0----0---0---0---0---0----0----0---0---0---0---0---0---------------------|
B|-1----1---1---1---1---1----1----1---1---1---1---1---1-------0-0---1-1-----|
G|-2----2---2---2---2---2----0----0---0---0---0---0---0-------0-0---0-0-----|
D|-2----2-----------2--------2----2-----------2-------2-------2-2-2-2-2-----|
A|-0----0-----------0--------0----0-----------0-------0---2---2-2-3---------|
E|--------------------------------------------------------0-----------------|

Chorus x2
e|--------------------------------------------------------------------------|
B|--------------------------------------------------------------------------|
G|--------------------------------------3--3---------2--2-----2-------------|
D|-2-------2-----2---2-----2------------4--4---------3--3-----3-------------|
A|-2-----2-------2---2---2----------4-4-4--4---------3--3-----3-------------|
E|-0---3-0-----3-0---0-3-0-----3----2-2-2--2---2-2---1--1-----1-------------|

Outro
e|----------------------------------------------0--------(0)-----------0----|
B|-------------------------------------------1------------------------------|
G|-3-------3-------2-------2--------------2---------------------------------|
D|-4-------4-------3-------3-----------2------------------------------------|
A|-4-------4-------3-------3--------0---------------------------------------|
E|-2-------2-------1-------1------------------------------------------------|
| /  slide up
|   slide down
| h  hammer-on
| p  pull-off
| ~  vibrato
| +  harmonic
| x  Mute note
============================================================================