Johnny Cash - One Chords & Tabs

 

One Chords & Tabs

Johnny Cash Chords & Tabs

Version: 1 Type: Tab 0 ratings
1 star 2 stars 3 stars 4 stars 5 stars
comments

One Tab

   
Johnny Cash - One
American 3: Solitary Man
-----------------------------------------------------------------
standard tuning

Tabbed by:cobainDK
Email: michaelf@sol.dk

Buy the cd!! Cash´s version is better than the original U2 !!



[ Tab from: http://www.guitartabs.cc/tabs/j/johnny_cash/one_tab.html ]
                                    The chords are right!!
                                    Up down strumming all the way                                   
        Am          D         Fmaj7          
e|----0-0-0-0-----2-2-2-2----0-0-0-0------3-3-3-3---------|
B|----1-1-1-1-----3-3-3-3----1-1-1-1------0-0-0-0---------|
G|----2-2-2-2-----2-2-2-2----2-2-2-2------0-0-0-0---------|   X 3
D|----2-2-2-2--0--0-0-0-0----3-3-3-3---0--0-0-0-0---------|
A|-0-----------------------0--------------2-2-2-2---------|
E|----------------------------------------3-3-3-3---------|
   
Chorus:
e|----0-0-0-0------0-0-0-0----0-0-0-0-----0-0-0-0-------|
B|----1-1-1-1------1-1-1-1----1-1-1-1-----1-1-1-1-------|
G|----0-0-0-0------2-2-2-2----2-2-2-2-----0-0-0-0-------|     X 2/3?
D|----2-2-2-2------2-2-2-2----3-3-3-3-----2-2-2-2-------|
A|-0--3-3-3-3---0-----------0----------0--3-3-3-3-------|
E|------------------------------------------------------|
Comments