Johnny Cash - Hurt Chords & Tabs

 

Hurt Chords & Tabs

Johnny Cash Chords & Tabs

Version: 4 Type: Tab 0 ratings
1 star 2 stars 3 stars 4 stars 5 stars
comments

Hurt Tab

Tabbed by: poWerChrd1234


Tuning: Standard

This is just a different way to play it.


Intro/Verses- This is played throughout the whole song
e|--------------------------------------------------------|
B|--------------------------------------------------------|
G|------5------5-------7----------------------------------|
D|--------------------------------------------------------|
A|----7------7------12------------------------------------|
E|--5------8-----10---------------------------------------|
[ Tab from: http://www.guitartabs.cc/tabs/j/johnny_cash/hurt_tab_ver_4.html ]
Real Chorus-  Try the other chorus part, see if it works...
e|--3-3-3-3-3-3-3-3--1-1-1-1-3-3-3-3----------------------|
B|--3-3-3-3-3-3-3-3--1-1-1-1-1-1-1-1----------------------|
G|--0-0-0-0-2-3-2-2--2-2-2-2-0-0-0-0----------------------|
D|----------2-2-2-2--3-3-3-3-2-2-2-2----------------------|
A|---------------------------3-3-3-3----------------------|
E|--------------------------------------------------------|

Chorus To Try For Fun- You can try this, it sounds good, but something sounds
off......(Strech those fingers)
e|--------------------------------------------------------|
B|--12-12-12--12-12-12-12--12-12-12-12--12-12--12--12-----|
G|--12-12-12--12-12-12-12--12-12-12-12--12-12--12--12-----|
D|---x--x--x---x-x--x--x---x--x--x--x---x---x---x---x-----|
A|--10-10-10---x-x--x--x---7--7--7--7---x---x---x---x-----|
E|-------------8-8--8--8----------------7---7---7---7-----|

Thats about it, pretty simple song, listen to it for timings, and where to play what.

-Keith
Comments