Johnathan Gustafson - Untitled Chords & Tabs

 

Untitled Chords & Tabs

Johnathan Gustafson Chords & Tabs

Version: 1 Type: Tab 0 ratings
1 star 2 stars 3 stars 4 stars 5 stars
comments

Untitled Tab

This song doesnt have a name, so yea

this is the verse, just play it over and over for about 10 times
-||------------------------------------------------------------------------------------||-
-||------------------------------------------------------------------------------------||-
-||----4-7-4---------------------------------------------------------------------------||-
-||-----------6---5---4-6-4-7---7------------------------------------------------------||-
-||-------------4---4----------6---6---------------------------------------------------||-
-||------------------------------------------------------------------------------------||-
pre chorus, play how evermany times sounds good
-||------------------------------------------------------------------------------------||-
-||------------------------------------------------------------------------------------||-
-||----4-6-4-7b-6-4----------------------- ----------0--0---0--------------------------||-
-||------------------4-6-4-7b-6-4---2-4-2-5b-4-2-0--0--0-------------------------------||-
-||------------------------------------------------------------------------------------||-
-||------------------------------------------------------------------------------------||-

-||------------------------------------------------------------------------------------||-
-||------------------------------------------------------------------------------------||-
-||--------8-9-9-9-8-7-7-7-7-7-6-6-5---------------------------------------------------||-
-||-7-7-7-8-9-9-9-8-7-7-7-7-7-6-6-5----------------------------------------------------||-
-||-7-7-7-6-7-7-7-6-5-5-5-5-5-4-4-3----------------------------------------------------||-
-||-5-5-5------------------------------------------------------------------------------||-
[ Tab from: http://www.guitartabs.cc/tabs/j/johnathan_gustafson/untitled_tab.html ]
solo
-||--------------------------------------------------------------------------------------||-
-||--------------------------------------------------------------------------------------||-
-||----4-7-4--------------------------6~-4~-6-6-4-7b-6-4 6-6-4-7b-6-4-----------4--------||-
-||-----------6---5---4-6-4-7---7------------------------------------------------4-------||-
-||-------------4---4----------6---6-----------------------------------------4-6---------||-
-||-----------------------------------------------------------------------4-6------------||-

-||-------------------11b-12-----------------------------------------------------------------||-
-||-------------------11b-----11-------------------------------------------------------------||-
-||--------------------------------11-6-5-----4---8~-6~-8-6-9b-8-6-8-6-9b-------6------------||-
-||----------------------------------------6-4---4-----------------------------8-7-8---5~----||-
-||------------------------------------------------------------------------------------------||-
-||-6-4-6h7p6-4-1~---------------------------------------------------------------------------||-

-||----------------------------------------------------------------------------------------||-
-||----------------------------------------------------------------------------------------||-
-||--------6----------------9---9-11-12b-12-12-12-12---4-6-4-7b-6-4------------------------||-
-||-8-7-8---5~--2~-6~-9~--9--------------------------------------------4-6-4-7b-6-4--------||-
-||----------------------------------------------------------------------------------------||-
-||----------------------------------------------------------------------------------------||-


-||---------------------------------------------------------------------------------------||-
-||---------------------------------------------------------------------------------------||-
-||------------------0--0--0-4-6-4-7b-6-4----------------------------------0--0--0--------||-
-||-2-4-2-5b-4-2-0--0--0------------------4-6-4-7b-6-4-2-4-2-5b-4-2-0--0--0--0--0---------||-
-||---------------------------------------------------------------------------------------||-
-||---------------------------------------------------------------------------------------||-

those are all the parts 

well i wrote this song and i need some opinions on the solo and stuff, this is my first tab
so don’t expect much, my screen name is   i like the gits, so instant message me and tell
me what u think
-john
Comments