John Rueben - Out Of Control Chords & Tabs

 

Out Of Control Chords & Tabs

John Rueben Chords & Tabs

Version: 1 Type: Tab 0 ratings
1 star 2 stars 3 stars 4 stars 5 stars
comments

Out Of Control Tab

   
----------------------------------------------------------------------------
			     OUT OF CONTROL - John Reuben
----------------------------------------------------------------------------
Tabbed by: No 1
Tuning: Standard (EADGBe)

I couldn't find any tabs for John Reuben, who is an awesome artist. "Out of
Control" is a great song, probably my favorite from this emerging artist.

Intro (Clean)
e|-------------------------------------------------------------------------|
B|-------------------------------------------------------------------------|
G|6-6-x-6/11-11-x-11/12\11-------------------------6-6-x-6/11-11-x-11/12\11|
D|x-x-x-x-x--x--x-x--x--x---9-9-xx-11-11-xx-11-xx--x-x-x-x-x--x--x-x--x--x-|
A|4-4-x-4/9--9--x-9/-10\9---x-x-xx-x--x--xx-x--xx--4-4-x-4/9--9--x-9/-10\9-|
E|--------------------------7-7-xx-9--9--xx-9--xx--------------------------|

Verse (Clean)
e|---------------------------|             
B|---------------------------|         
G|-6-6-xxx-11----------------|        For the verse, just skip around 
D|-4-4-xxx-9----9-9-xxx-11---|        playing these 2 parts. They're just 2
A|-4-4-xxx-9----7-7-xxx-x----|        ways to play the same chord
E|--------------7-7-xxx-9----|        progression. If you listen to the 
                                      song, you'll see how the guitar goes
e|----------------------------------| back and forth between these 2 parts.
B|----------------------------------|
G|-----6-------11-------------------|
D|---4-------9----------9-------11--|
A|-4-------9----------7-------9-----|
E|------------------7-------9-------|
[ Tab from: http://www.guitartabs.cc/tabs/j/john_rueben/out_of_control_tab.html ]
Chorus (Distortion)
e|------------------------------------------------------|
B|------------------------------------------------------|
G|-6-6-xx-6/11-11-xx-11/12\11---------------------------|
D|-x-x-xx-x-x--x--xx-x--x--x---9-9-xx-11-11-xx-11-xx----|
A|-4-4-xx-4/9--9--xx-9/-10\9---x-x-xx-x--x--xx-x--xx----|
E|-----------------------------7-7-xx-9--9--xx-9--xx----|X4

Bridge (Clean) - Same as intro
Verse (Clean) 
Chorus (Distortion)

At the end of the chorus play:
e|-------------------------------------------------------------------------|
B|---11--11-xx--11---11--11-xx--11-----------------------------------------|
G|---x---x--xx--x----x---x--xx--x------------------------------------------|
D|---9---9--xx--9----9---9--xx--9------------------------------------------|
A|-------------------------------------------------------------------------|
E|-------------------------------------------------------------------------|
  ...out of control, out of control...


Outro thing (Distortion)
e|-------------------------------------------------------------------------|
B|-------------------------------------------------------------------------|
G|-11----------------------------------------------------------------------|
D|-x--x8--11-----9------11-11-xx-11-11-xx-11-xx-11-11-xx-11-11-xx-11-------|
A|-9------x--x3--x--x5--x--x--xx-x--x--xx-x--xx-x--x--xx-x--x--xx-x--------|
E|--------9------7------9--9--xx-9--9--xx-9--xx-9--9--xx-9--9--xx-9--------|

e|----------------------|                   |------------------------------|
B|----------------------|                   |------------------------------|
G|-11-------------------|     Turn off      |--6-6-x-6/11-11-x-11/12\11----|
D|-x--x8--11-----9------|    distortion     |--x-x-x-x-x--x--x-x--x--x--9--|
A|-9------x--x3--x--x5--|                   |--4-4-x-4/9--9--x-9/-10\9--x--|
E|--------9------7------|                   |---------------------------7--|

Chorus 1 more time

Thats it!
============================================================================
| /  slide up
| \  slide down
| h  hammer-on
| p  pull-off
| ~  vibrato
| +  harmonic
| x  Mute note
============================================================================
Comments