John Newman - Love Me Again Chords & Tabs

 

Love Me Again Chords & Tabs

John Newman Chords & Tabs

Version: 2 Type: Tab 0 ratings
1 star 2 stars 3 stars 4 stars 5 stars
comments

Love Me Again Tab

   
this is a long tab but ive split it down into sections and its in the same scale 
so its not too hard (ive been playing for 3-5 years and i can do it easily.)

intro
e|-----------------1-|
B|--------1-3--1-3---|
G|--0-2-3------------|
D|-------------------|
A|-------------------|
E|-3-----------------|

Part 2
e|----------------|
B|----------------|
G|-----3---7---5--|
D|-5---3---7---5--|
A|-5---1---5---3--|
E|-3--------------|

e|----------------------------5----|
B|-8-8-8-6--8-8-8-6---8-8-8-6--8---|
G|---------------------------------|    x2
D|---------------------------------|
A|---------------------------------|
E|---------------------------------|

Part 3
e|---------5-10-5-------------------5---|
B|-----6-8--------8-6-8-------6-8-6---8-|
G|-7-7--------------------7-7-----------|
D|--------------------------------------|   x2
A|--------------------------------------|
E|--------------------------------------|

Part 4
e|-20-18-17-15-13-12-10-8--/15-15--15-15-15-15------15-15--15-15-15-15---|
B|-----------------------------------------------------------------------|
G|-----------------------------------------------------------------------|
D|-----------------------------------------------------------------------|
A|-----------------------------------------------------------------------|
E|-----------------------------------------------------------------------|

Part 5

e|---3---------6--------5------3--|
B|---3---------6--------6------5--|
G|---3---------7--------7------5--|
D|---5---------8--------7------5--|
A|---5---------8---3--5-5----3-3--|
E|-3-3----5--6-6------------------|

    G         A#       D      C 

Part 6

E|-15-15----17-15-------17-15-------17-17-15-15----15-|
B|-------18-------18-15-------18-15--------------18---|
G|----------------------------------------------------|   x4
D|----------------------------------------------------|
A|----------------------------------------------------|
E|----------------------------------------------------|

Part 6.5

E|-3-3---5-3------5-3------5-5-3-3---3--|
B|-----6-----6-3------6-3----------6----|
G|--------------------------------------|  come in start of third time above
D|--------------------------------------|
A|--------------------------------------|
E|--------------------------------------|

Part 7

E|-17-15----15----15----15-15-17-15-15----15--|
B|-------18----18----18----------------18-----|
G|--------------------------------------------|
D|--------------------------------------------|
A|--------------------------------------------|
E|--------------------------------------------|

Part 8

E|-----------------------5-----------------5----|
B|-8-8-8-8-6-6---8-8-8-8---6-----8-8-6-8-6---8--|
G|----------------------------------------------|
D|----------------------------------------------|
A|----------------------------------------------|
E|----------------------------------------------|

E|-----------------------5----------------5-----|
A|-8-8-8-8-6-6---8-8-8-8---6----8-8-8-6-6---8---|
D|----------------------------------------------|
G|----------------------------------------------|
B|----------------------------------------------|
E|----------------------------------------------|

Part 9

e|---------5-10-5-------------------5---|
B|-----6-8--------8-6-8-------6-8-6---8-|
G|-7-7--------------------7-7-----------|
D|--------------------------------------|   
A|--------------------------------------|
E|--------------------------------------|
[ Tab from: http://www.guitartabs.cc/tabs/j/john_newman/love_me_again_tab_ver_2.html ]
e|---------5-10-13-11-10---10-10-13-15-13-|
B|-----6-8--------------------------------|
G|-7-7------------------------------------|
D|----------------------------------------|  
A|----------------------------------------|
E|----------------------------------------|

Part 10

e|-20-18-17-15-13-12-10-8--/15-15----17-15-------17-15-------17-17-15-15-----15--|
B|--------------------------------18-------18-15-------18-15--------------18-----|
G|-------------------------------------------------------------------------------|
D|-------------------------------------------------------------------------------|
A|-------------------------------------------------------------------------------|
E|-------------------------------------------------------------------------------|


E|-15-15----17-15-------17-15-------15-17-15-15-----15-|
B|-------18-------18-15-------18-15--------------18----|
G|-----------------------------------------------------|   x2
D|-----------------------------------------------------|
A|-----------------------------------------------------|
E|-----------------------------------------------------|

Part 10.5

E|-3-3---5-3------5-3------5-5-3-3---3--|
B|-----6-----6-3------6-3----------6----|
G|--------------------------------------|  come in start of third time above
D|--------------------------------------|
A|--------------------------------------|
E|--------------------------------------|

E|-17-15----15----15----15--17-15-----15---15----15-15-17-15-15----15--|
B|-------18----18----18------------18----18---18----------------18-----|
G|---------------------------------------------------------------------|
D|---------------------------------------------------------------------|
A|---------------------------------------------------------------------|
E|---------------------------------------------------------------------|

Part 11

e|----------------|
B|-------1-3-1----|
G|-0-2-3----------|
D|----------------|    x2
A|----------------| 
E|----------------|

Part 11.5

e|---------8-10-8---|
B|-8-10-11----------|
G|------------------|
D|------------------|
A|------------------|
E|------------------|

Part 12

e|-17-15-15-15-15----15-17-15-------17-15-------15-15---|
B|----------------18----------18-18-------18-18----17---|
G|------------------------------------------------------|
D|------------------------------------------------------|
A|------------------------------------------------------|
E|------------------------------------------------------|

e|-15-15-15-15-15----15-17-15-------17-15-------15-15---|
B|----------------18----------18-18-------18-18---------|
G|------------------------------------------------------|
D|------------------------------------------------------|
A|------------------------------------------------------|
E|------------------------------------------------------|

Part 13

e|---3---------6--------5------3--|
B|---3---------6--------6------5--|
G|---3---------7--------7------5--|
D|---5---------8--------7------5--|  x2
A|---5---------8---3--5-5----3-3--|
E|-3-3----5--6-6------------------|

Part 14

E|-15-15----17-15-------17-15-------15-17-15-15-----15-|
B|-------18-------18-15-------18-15--------------18----|
G|-----------------------------------------------------|   x2
D|-----------------------------------------------------|
A|-----------------------------------------------------|
E|-----------------------------------------------------|

Part 15

E|-17-15----15----15-----15-17-15-15----15--|
B|-------18----18----18--------------18-----|
G|------------------------------------------|
D|------------------------------------------| 
A|------------------------------------------|
E|------------------------------------------|

i told you it was long :)
Comments