John Mayer - Your Body Is A Wonderland Chords & Tabs

 

Your Body Is A Wonderland Chords & Tabs

John Mayer Chords & Tabs

Version: 7 Type: Tab 0 ratings
1 star 2 stars 3 stars 4 stars 5 stars
comments

Your Body Is A Wonderland Tab

John Mayer's Your Body Is A Wonderland Solo..hope you like it..
 tabbed by foxy carlos

[ Tab from: http://www.guitartabs.cc/tabs/j/john_mayer/your_body_is_a_wonderland_tab_ver_7.html ]
 Damn baby
 You frusterate me
 I know you're mine all mine all mine
 But you look so good it hurts sometimes..
 
SOLO: 
 e:-12-8-------------------][-12-8----10----12-]
 B:------10-8-6--6/8--10\8-][------10----12-12-]
 G:-12-9-------------------][-12-9----10----12-]
 D:------10-8-7--7/9--10\8-][------10----12----]
 A:------------------------][------------------]
 E:------------------------][------------------]

 e:-12-8-------------------][-12-8----10------15-]
 B:------10-8-6--6/8--10\8-][------10----12------]
 G:-12-9-------------------][-12-9----10------16-]
 D:------10-8-7--7/9--10\8-][------10----12------]
 A:------------------------][--------------------]
 E:------------------------][--------------------]
 

 ANY COMMENTS AND/OR VIOLENT REACTIONS JUST EMAIL ME 
 foxy_carlos@yahoo.com
Comments