John Mayer - Your Body Is A Wonderland Chords & Tabs

 

Your Body Is A Wonderland Chords & Tabs

John Mayer Chords & Tabs

Version: 6 Type: Tab 0 ratings
1 star 2 stars 3 stars 4 stars 5 stars
comments

Your Body Is A Wonderland Tab

tabbed by: ben hobson


intro/verse 1

e----------------------------------------------------------------]
b----------------------------------------------------------------]
g-----10------10-------10-------10-------10-------10-------10----]
d----------------------------------------------------------------]
a--8-------8-------------------------8--------8------------------]
e------------------9---------9-------------------------9---------]

pre-chorus

e-----------------------------------------------------------------]
b-----------------------------------------------------------------]
g----10-----10------10---------10--------10----------10-------10--]
d-----------------------------------------------------------------]
a-8------8-------------------------8----------8-------------------]
e----------------9-------9------------------------------9---------]

Chorus

e----------------------------------------------------------------]
b----------------------------------------------------------------]
g-----10------10-------10-------10-------10-------10-------10----]
d----------------------------------------------------------------]
a--8-------8-------------------------8--------8------------------]
e------------------9---------9-------------------------9---------]

Verse 2
[ Tab from: http://www.guitartabs.cc/tabs/j/john_mayer/your_body_is_a_wonderland_tab_ver_6.html ]
e----------------------------------------------------------------]
b----------------------------------------------------------------]
g-----10------10-------10-------10-------10-------10-------10----]
d----------------------------------------------------------------]
a--8-------8-------------------------8--------8------------------]
e------------------10--------10--------------------------10------]

Solo

e|-12-----------------------------------12----------10-----|
B|-----13--8/10--8--6------6/8--10-8--------13--10------12-|
G|-12-----------------------------------12----------10-----|
D|-----14--8/10--8--7------7/9--10-9--------14--10------12-|
A|---------------------------------------------------------|
D|---------------------------------------------------------|

end on chorus 

lyrics

verse 1:
We got the afternoon
You got this room for two
One thing I've left to do
Discover me
Discovering you
One mile to every inch of
Your skin like porcelain
One pair of candy lips and
Your bubblegum tongue

pre-chorus:
And if you want love
We'll make it
Swimming a deep sea
Of blankets
Take all your big plans
And break 'em
This is bound to be a while

chorus:

Your body Is a wonderland
Your body is a wonder (I'll use my hands)
Your body Is a wonderland

verse 2

Something 'bout the way your hair falls in your face
I love the shape you take when crawling towards the pillowcase
You tell me where to go and
Though I might leave to find it
I'll never let your head hit the bed
Without my hand behind it

pre-chorus:

you want love?
We'll make it
Swimming a deep sea
Of blankets
Take all your big plans
And break 'em
This is bound to be a while
Your body Is a wonderland
Your body is a wonder (I'll use my hands)
Your body Is a wonderland

solo:

Damn baby
You frustrate me
I know you're mine all mine all mine
But you look so good it hurts sometimes

chorus:

Your body Is a wonderland
Your body is a wonder (I'll use my hands)
Your body Is a wonderland
Your body is a wonder
Comments