John Mayer - Your Body Is A Wonderland Chords & Tabs

 

Your Body Is A Wonderland Chords & Tabs

John Mayer Chords & Tabs

Version: 4 Type: Tab 0 ratings
1 star 2 stars 3 stars 4 stars 5 stars
comments

Your Body Is A Wonderland Tab

Intro/verse/chorus
e --------------------------------------------------------------------------|
B --------------------------------------------------------------------------|
G -------10--x--10------10--x--10-----10--x--10-------10--x--10-------------|
D -------10--x--10------10--x--10-----10--x--10-------10--x--10-------------|
A ---8-------x--8-----------x-------------x---------------x-----------------|
D -----------x------10------x--10--8------x--8----10------x--10-------------|

fill
e--------------------------------------------------------------------------|
B-------10--8--8---10-10-8----------3x3--5x5--6x6--7x7---------------------|
G-------10-10-10---10-10-10---------3x3--5x5--6x6--7x7---------------------|
D---------------------------X3------3x3--5x5--6x6--7x7---------------------|
A--------------------------------------------------------------------------|
D----8-----------10--------------------------------------------------------|
[ Tab from: http://www.guitartabs.cc/tabs/j/john_mayer/your_body_is_a_wonderland_tab_ver_4.html ]
solo kinda thing
e-----12--8-------------------------12-8 -----10------------------------|
B-------------10-8-6-6-8-10-6-8---------10-----12-----------------------|
G-----------------------------------------------------------------------|
D-----------------------------------------------------------------------|
A-----------------------------------------------------------------------|
D-----------------------------------------------------------------------|

e-----12--8-------------------------12-8 -----15------------------------|
B-------------10-8-6-6-8-10-6-8---------10-----17-----------------------|
G-----------------------------------------------------------------------|
D-----------------------------------------------------------------------|
A-----------------------------------------------------------------------|
D-----------------------------------------------------------------------|

jam thing
e-------------12----------------------------------------------------|
B-----10------10----------------------------------------------------|
G-----10--x7--10---REPEAT-------------------------------------------|
D-----10------10----------------------------------------------------|
A-------------------------------------------------------------------|
D-------------------------------------------------------------------|

please rate it

any corrections Littleschmidt9@hotmail.com
Comments