John Mayer - Your Body Is A Wonderland Live Chords & Tabs

 

Your Body Is A Wonderland Live Chords & Tabs

John Mayer Chords & Tabs

Version: 1 Type: Tab 0 ratings
1 star 2 stars 3 stars 4 stars 5 stars
comments

Your Body Is A Wonderland Live Tab

   
#-----------------------------PLEASE NOTE-------------------------------------#
#     This file is the author's own work and represents their interpretation  #
#of the song. You may only use this file for private study, scholarship, or   #
#research. Remember to view this file in Courier, or some other monospaced    #
#font.                                                                        #
#-----------------------------------------------------------------------------#

"Your Body is a Wonderland" (live version)

Song by: John Mayer

Standard tuning with capo on 1st fret

Tab is made WITHOUT regard to capo so a "1" on the A
string is really played open.  Also, I finger-pick
the whole thing and the "xxx" means hitting the
strings with you hand not muffled.  If you can play this,
I am assuming you know what a slide, hammer, palm mute,
bend and staccato (quick note) are and look like.
There are other tabs without a capo but I like mine.

 INTRO
   1 + 2 + 3 + 4 +   1 + 2 + 3 + 4  +
E---------------(5)|--(5)-(5)--5-------|
B----6-x-6---6-x-6-|---6-x-6-----------| I don't play the
G----5-x-5---5-x-5-|---5-x-5---5-------| notes in parentheses
D--3---x-3-----x---|-----x--------3h5/7| and it sounds fine.
A----------3-----3-|-1-----1-3---------|
e------------------|-------------------|

E------------------|---------------5---|
B----6-x-6---6-x-6-|---6-x-6---6-x-----|
G----5-x-5---5-x-5-|---5-x-5---5-x-2---|
D-/3---x-3-----x---|-----x-------x---3-|
A----------3-----3-|-1-----1-3---------|
e------------------|-------------------|

E------------------|-----------5-------|
B----6-x-6---6-x-6-|---6-x-6-----------|
G----5-x-5---5-x-5-|---5-x-5---5-------|
D-/3---x-3-----x---|-----x--------3h5/7|
A----------3-----3-|-1-----1-3---------|
e------------------|-------------------|

E------------------|-------------------|
B----6-x-6---6-x-6-|---6-x-6---6-x-----|
G----5-x-5---5-x-5-|---5-x-5---5-x-----|
D-/3---x-3-----x---|-----x-------x-----|
A----------3-----3-|-1-----1-3------3--|
e------------------|-------------------|

 VERSE
E------------------|------------------|-------|
B----6-x-6---6-x-6-|---6-x-6---6-x----|-------|
G----5-x-5---5-x-5-|---5-x-5---5-x----|-(x 8)-|
D--3---x-3-----x---|-----x-------x----|-------|
A----------3-----3-|-1-----1-3-----3--|-------|
e------------------|------------------|-------|

 BRIDGE
   1 + 2 + 3 + 4 +   1 + 2 + 3 + 4 +
E----5---3---3-----|---5---3---3-----|-------|
B------x-------x---|-----x-------x---|-------|
G----5-x-5---5-x---|---5-x-5---5-x---|-(x 2)-|
D------x-------x---|-----x-------x---|-------|
A--1-----1-1-1---1-|-3-----3-3-3---3-|-------|
e------------------|-----------------|-------|

   1 + 2 + 3 + 4 +   1 + 2 + 3 + 4 +
E------------------|-----------3-----|
B----3-x-----5-x---|---6-x-------x---|
G----5-x-----5-x---|---5-x-----5-x---|
D------x-------x---|-----x-------x---|
A------------------|-1-----1-3-----3-|
e--3-----3-5-----5-|-----------------|

 CHORUS
E------------------|------------------|-------|
B----6-x-6---6-x-6-|---6-x-6---6-x----|-------|
G----5-x-5---5-x-5-|---5-x-5---5-x----|-(x 8)-|
D--3---x-3-----x---|-----x-------x----|-------|
A----------3-----3-|-1-----1-3-----3--|-------|
e------------------|------------------|-------|

 BRIDGE
   1 + 2 + 3 + 4 +   1 + 2 + 3 + 4 +
E----5---3---3-----|---5---3---3-----|-------|
B------x-------x---|-----x-------x---|-------|
G----5-x-5---5-x---|---5-x-5---5-x---|-(x 2)-|
D------x-------x---|-----x-------x---|-------|
A--1-----1-1-1---1-|-3-----3-3-3---3-|-------|
e------------------|-----------------|-------|

   1 + 2 + 3 + 4 +   1 + 2 + 3 + 4 +
E------------------|-----------3-----| actually the Gs (3s)
B----3-x-----5-x---|---6-x-------x---| in parentheses are
G----5-x-----5-x---|---5-x-----5-x---| low Ds.  I dont know
D------x-------x---|-----x-------x---| how that can work so
A------------------|-1-------3-----3-| the Gs sound fine.
e--3----(3)5----(3)|------(3)--------|
[ Tab from: http://www.guitartabs.cc/tabs/j/john_mayer/your_body_is_a_wonderland_live_tab.html ]
 2nd CHORUS (same as first)
E------------------|------------------|-------|
B----6-x-6---6-x-6-|---6-x-6---6-x----|-------|
G----5-x-5---5-x-5-|---5-x-5---5-x----|-(x 8)-|
D--3---x-3-----x---|-----x-------x----|-------|
A----------3-----3-|-1-----1-3-----3--|-------|
e------------------|------------------|-------|

 BRIDGE 2
   1 + 2 + 3 + 4 + 1 + 2 + 3 + 4 +
E-(1)----3-------1-3------1-3------| This is all so
B--6---x(1)----3-------3-------x---| tough to play well.
G--7---x-5---------------------x---| I know its not 100%
D------x----5--------5---------x---| but i did my best
A-(5)---(3)------------------------| and it sounds good.
e---(5)---(3)----------------------|

   1 + 2 + 3 + 4 + 1 + 2 + 3 + 4 +
E-(1)----3-------1-3-----1-3-------|
B--6---x(1)----3-------3-------x---|
G--7---x-5---------------------x---|
D------x----5--------5-------5-x---|
A-(5)---(3)------------------------|
e---(5)---(3)----------------------|

   1 + 2 + 3 + 4 + 1 + 2 + 3 + 4  +
E-(1)----3-------------1---3-------|
B--6---x(1)5-------3---------------|
G--7---x-5-------------------------|
D------x-------5-------------------|
A-(5)---(3)------------------------|
e---(5)---(3)----------------------|

   1 + 2 + 3 + 4 + 1 + 2 + 3 + 4 +
E-(1)----3---------1-3-----1-3-----|
B--6----(1)--5---3-------3-----x---|
G--7-----5---------------------x---|
D--------------5-------5-------x---|
A-(5)---(3)------------------------|
e---(5)---(3)----------------------|

 SOLO...sort of. (rythem = one ee and a two ee and a etc...)
 This is tricky because you have to quickly hit-mute-staccato.
 Ive added the base line in parentheses for no particular reason.

   1 e + a 2 e + a 3 e + a 4 e + a 1 e + a 2 e + a 3 e + a 4 e + a
E-------------------------------------------------------------12--|
B--x--10'--x--10'--x--10'--x--10'--x--10'--x--10'--x--10'--x--10--|
G--x--10'--x--10'--x--10'--x--10'--x--10'--x--10'--x--10'--x------|(x2)
D--x12-----x12-----x12-----x12-----x12-----x12-----x12-----x12----|
A-(5)---------(3)-(5)-----(3)-----(5)---------(3)-(1)-------------|
e---------------------------------------------------------(3)-----|
  pm..    pm..    pm..    pm..    pm..    pm..    pm..    pm..

   1 e + a 2 e + a 3 e + a 4 e + a 1 e + a 2 e + a 3 e + a 4 e + a
E-------------------------------------------------------------12--|
B--x--10'--x--10'--x--10'--x--10'--x--10'--x--10'--x--13'--x--10--|
G--x--10'--x--10'--x--10'--x--10'--x--10'--x--10'--x--10'--x------|
D--x12-----x12-----x12-----x12-----x12-----x12-----x12-----x12----|
A-(5)---------(3)-(5)-----(3)-----(5)---------(3)-(1)-------------|
e---------------------------------------------------------(3)-----|
  pm..    pm..    pm..    pm..    pm..    pm..    pm..    pm..

   1 e + a 2 e + a 3 e + a 4 e + a 1 e + a 2 e + a 3 e + a 4 e + a
E-----------------------------------------------------------------|
B--x--10'--x--10'--x--10'--x--10'--x--10'--x--10'--x--10'--x--10--|
G--x--10'--x--10'--x--10'--x--10'--x--10'--x--10'--x--10'--x--10--|
D--x12-----x12-----x12-----x12-----x12-----x12-----x12-----x12----|
A-(5)---------(3)-(5)-----(3)-----(5)-----(3)-----(1)-------------|
e---------------------------------------------------------(3)-----|
  pm..    pm..    pm..    pm..    pm..    pm..    pm..    pm..

 Chorus 3 and Verse 3 (played 12 times)
   1 e + a 2 e + a 3 e + a 4 e + a 1 e + a 2 e + a 3 e + a 4 e + a
E---------------------------------|-------------------------------|
B------6---x---6-------6---x---6--|----6---x---6-------6---x------|
G------5---x---5-------5---x---5--|----5---x---5-------5---x------|
D--3-------x---3-3---------x------|--------x---------------x------|
A------------------3-----------3-3|1-----------1-1-3-----------3-3|
e---------------------------------|-------------------------------|
                                                           !
   (This 4th "hit" is played as a knock only the 1st time) *

VERSE1

BRIDGE

CHORUS

VERSE 2

BRIDGE

CHORUS

BRIDGE 2

CHORUS

OUTRO
Comments