John Mayer - Your Body Is A Wonderland Chords & Tabs

 

Your Body Is A Wonderland Chords & Tabs

John Mayer Chords & Tabs

Version: 2 Type: Bass Tab 0 ratings
1 star 2 stars 3 stars 4 stars 5 stars
comments

Your Body Is A Wonderland Bass Tab

Your Body Is A Wonderland (bass tab)
By John Mayer

Bass comes in after "discovering you"

--------------------------|------------------------|-----------------------|
---------3-5-3------------|--3-----0-3-------------|-----------------------|
---------------5--3-0-3-0-|-------------3-----0-3--|--1-----0-1--3----3----|
--------------------------|------------------------|-----------------------|

------------------------|-----------------------|------------------------|
--3-----0-3-------------|-----------------------|--3-----0-3-------------|
-------------3-----0-3--|--1-----0-1--3----3----|-------------3-----0-3--|
------------------------|-----------------------|------------------------|

-----------------------|------------------------|-----------------------|
-----------------------|--3-----0-3-------------|-----------------------|
--1-----0-1--3----3----|-------------3-----0-3--|--1-----0-1--3----3----|
-----------------------|------------------------|-----------------------|

-----------------------|----------------------|-----------------------|
-----------------------|----------------------|-----------------------|
--1---------1-0--------|--3-------------3--3--|--1---------1-0--------|
-----------------3--1--|-------------3--------|-----------------3--1--|

----------------------|-----------------------|---------------------|
----------------------|-----------------------|---------------------|
--3-------------3--3--|--1---------1-0--------|--3-------------3----|
-------------3--------|-----------------3--1--|-------------3-------|

------------------------|-----------------------|------------------------|
------------------------|-----------------------|--3-----0-3-------------|
-------------0--0----0--|--1--1----1--3----3----|-------------3-----0-3--|
--3--3----3-------------|-----------------------|------------------------|

-----------------------|------------------------|-----------------------|
-----------------------|--3-----0-3-------------|-----------------------|
--1-----0-1--3----3----|-------------3-----0-3--|--1-----0-1--3----3----|
-----------------------|------------------------|-----------------------|

------------------------|-----------------------|------------------------|
--3-----0-3-------------|-----------------------|--3-----0-3-------------|
-------------3-----0-3--|--1-----0-1--3----3----|-------------3-----0-3--|
------------------------|-----------------------|------------------------|

-----------------------|------------------------|---------------------------|
-----------------------|--3-----0-3-------------|-------------------1-------|
--1-----0-1--3----3----|-------------3-----0-3--|--1-----0-1--3---3---3-1-0-|
-----------------------|------------------------|---------------------------|

------------------------|-----------------------|------------------------|
--3-----0-3-------------|-----------------------|--3-----0-3-------------|
-------------3-----0-3--|--1-----0-1--3----3----|-------------3-----0-3--|
------------------------|-----------------------|------------------------|

-----------------------|-----------------------|-------------------------|
-----------------------|--------------7--5--3/-|--10--------10---7-------|
--1-----0-1--3----3/---|--13-------------------|-------------------------|
-----------------------|-----------------------|-------------------8--8--|

----------------------|-------------------------|----------------------|
--8----------7--5--3/-|--10--------10---7-------|--8----7----5----3/---|
----------------------|-------------------------|----------------------|
----------------------|-------------------8--8--|----------------------|

-------------------------|------------------------|-----------------------|
--10--------10---7-------|------------------------|-----------------------|
-------------------------|-------------0--0----0--|--1--1----1--3----3----|
-------------------8--8--|--3--3----3-------------|-----------------------|
[ Tab from: http://www.guitartabs.cc/tabs/j/john_mayer/your_body_is_a_wonderland_btab_ver_2.html ]
------------------------|-----------------------|------------------------|
--3-----0-3-------------|-----------------------|--3-----0-3-------------|
-------------3-----0-3--|--1-----0-1--3----3----|-------------3-----0-3--|
------------------------|-----------------------|------------------------|

-----------------------|------------------------|-----------------------|
-----------------------|--3-----0-3-------------|-----------------------|
--1-----0-1--3----3----|-------------3-----0-3--|--1-----0-1--3----3----|
-----------------------|------------------------|-----------------------|

----------------------|----------------------|----------------------|
--0----------0/-------|----------12----12/---|--0----------0/-------|
--------0-3-----------|----------------------|--------0-3-----------|
----------------------|----------------------|----------------------|

----------------|--------------------|-----------------|----------------------|
------15--14/---|--0----------0/-----|---------17/-----|--0----------0/-------|
----------------|--------0-3---------|-----------------|--------0-3-----------|
----------------|--------------------|-----------------|----------------------|
----------------------|------------------------|------------------------------|
----------12----12/---|--0----------0----------|--0----------0----------------|
----------------------|--------0-3--------0-3--|--------0-3-------------------|
----------------------|------------------------|------------------3-----------|

------------------------|-----------------------|------------------------|
--0----------0----------|--0----------0---------|--0----------0----------|
--------0-3--------0-3--|--------0-3-------3----|--------0-3--------0-3--|
------------------------|-----------------------|------------------------|

-----------------------|------------------------|-----------------------|
--0----------0---------|--0----------0----------|--0----------0---------|
--------0-3------------|--------0-3--------0-3--|--------0-3-------3----|
------------------3----|------------------------|-----------------------|

-----------------|------------------|----------------|----------------------|
0/---------------|--12/-------------|----------------|----------------------|
-----------------|------------------|----------------|-------3-5-3-1--------|
-----------------|------------------|----------------|----------------3--0--|

------------------------|-----------------------|------------------------|
--3-----0-3-------------|-----------------------|--3-----0-3-------------|
-------------3-----0-3--|--1-----0-1--3----3----|-------------3-----0-3--|
------------------------|-----------------------|------------------------|

-----------------------|------------------------|-----------------------|
-----------------------|--3-----0-3-------------|-----------------------|
--1-----0-1--3----3----|-------------3-----0-3--|--1-----0-1--3----3----|
-----------------------|------------------------|-----------------------|

------------------------|-----------------------|------------------------|
--3-----0-3-------------|-----------------------|--3-----0-3-------------|
-------------3-----0-3--|--1-----0-1--3----3----|-------------3-----0-3--|
------------------------|-----------------------|------------------------|

-----------------------|------------------------|-----------------------|
-----------------------|--3-----0-3-------------|-----------------------|
--1-----0-1--3----3----|-------------3-----0-3--|--1-----0-1--3----3----|
-----------------------|------------------------|-----------------------|

------------------------|-----------------------|------------------------|
--3-----0-3-------------|-----------------------|--3-----0-3-------------|
-------------3-----0-3--|--1-----0-1--3----3----|-------------3-----0-3--|
------------------------|-----------------------|------------------------|

-----------------------|------------------------|-----------------------||
-----------------------|--3-----0-3-------------|-----------------------||
--1-----0-1--3----3----|-------------3-----0-3--|--1-----0-1--3----3----||
-----------------------|------------------------|-----------------------||

ScooB
Comments