John Mayer - Your Body Is A Wonderland Chords & Tabs

 

Your Body Is A Wonderland Chords & Tabs

John Mayer Chords & Tabs

Version: 1 Type: Bass Tab 0 ratings
1 star 2 stars 3 stars 4 stars 5 stars
comments

Your Body Is A Wonderland Bass Tab

Intro 
Come in at 0:29

G|-------------------------|
D|-------------------------|
A|----33--333--------------|
E|---0--4----4-------------|x1

Verse

G|-----------------------------|
D|-----------------------------|
A|-----------------------------|
E|0-5-0h33--7h57--0h3---3------|x4

Pre-Chorus

G|------------|
D|------------|
A|------------|
E|--3x3--5x5--|x4

G|--------------------|
D|--------------------|
A|--------------------|
E|--3x3--5x5--7x7--9x9|x1

Verse x8

Pre-Chorus

Interlude
[ Tab from: http://www.guitartabs.cc/tabs/j/john_mayer/your_body_is_a_wonderland_btab.html ]
G|------------|
D|------------|
A|------------|
E|0--Oh11---1/|x4

G|--------------------------------|
D|--------------------------------|
A|--------------------------------|
E|0--0h11--0h11----0h1h5----------|x4

G|--------------------------------|
D|--------------------------------|
A|--------------------------------|
E|0--0h11--0h11----0h1h5/4--------|x1

G|--------------------------------|
D|--------------------------------|
A|--------------------------------|
E|Ohx-----------------------------|

Intro x1
Verse x10


This is my first time tabbing, so feel free to correct. 
if you ahve any q's, email me at ff_civic@hotmail.com.
Comments