John Mayer - Why Georgia Chords & Tabs

 

Why Georgia Chords & Tabs

John Mayer Chords & Tabs

Version: 2 Type: Tab 0 ratings
1 star 2 stars 3 stars 4 stars 5 stars
comments

Why Georgia Tab

   
#----------------------------------PLEASE NOTE---------------------------------#
#This file is the author's own work and represents their interpretation of the #
#song. You may only use this file for private study, scholarship, or research. #
#------------------------------------------------------------------------------#

WHY GEORGIA
As recorded by John Mayer
(From the 2003 Album ROOM FOR SQUARES)


Transcribed by Noel T. Manalo

 

 

Gtr I (E A D G B E) - 'Untitled'
Gtr II (E A D G B E) - 'Untitled'


 Intro
  Q=95
  G                     D
 4/4
  Gtr I
  E  T   S.  S   s   E  E +S   E  S  S  s
|-----------------------------------------|
|----3--(3)-(3)--3--(3)-------------------|
|----0h==2-------0--(0)--------0--------0-|
|------------0--(0)-(0)-4-(4)-(4)----4----|
|--------------------0--5-(5)-----5-(5)---|
|-3-(3)-(3)-(3)---------------------------|


    G                     D
     E   T   S.  S  s  E  E +S   E  S  S  s  3x
||-------------------------------------------||
||o------3--(3)-----3-(3)-------------------o||
||--(0)--0h==2------0-(0)--------0--------0--||
||---------------0----(0)-4-(4)-(4)----4-----||
||o--------------------0--5-(5)-----5-(5)---o||
||---3--(3)-(3)-(3)--------------------------||


   Verse 1 & 2
    $
    G                       D
     E   T   S.  S   s   E  E +S  E S  S   s   3x
||---------------------------------------------||
||o-------------------------------------------o||
||--(0)--0h==2-------0--(0)-------0--------0---||
||---------------0--(0)-(0)-4-(4)------4-------||
||o-------------------------5-(5)---5-(5)-(5)-o||
||---3--(3)-(3)-(3)----------------------------||


  G                       D
   E   T   S.  S   s   E  E +S  E S  S   S
|-------------------------------------------|
|-------------------------------------------|
|-(0)--0h==2-------0--(0)-------0--------0--|
|--------------0--(0)-(0)-4-(4)------4------|
|-------------------------5-(5)---5-(5)-(5)-|
|--3--(3)-(3)-(3)---------------------------|


  C                       C
  E  S   s  S  s   S   s  s  S  S E  S  S S
|-------------------------------------------|
|-----------------------------------------0-|
|----0--(0)----0--(0)-(0)----0----2-(2)-2---|
|----2---0--2------2---0--2-----2----2------|
|-3-(3)-----3-(3)---------3-(3)-------------|
|-------------------------------------------|


  C                       C
  E  S   s  S  s   S   s  s  S  S E  S  S S
|-------------------------------------------||
|-----------------------------------------0-||
|----0--(0)----0--(0)-(0)----0----2-(2)-2---||
|----2---0--2------2---0--2-----2----2------||
|-3-(3)-----3-(3)---------3-(3)-------------||
|-------------------------------------------||


  E  T   S.  S   s   E  E +S   E  S  S  s
|-----------------------------------------|
|----3--(3)-(3)--3--(3)-------------------|
|----0h==2-------0--(0)--------0--------0-|
|------------0--(0)-(0)-4-(4)-(4)----4----|
|---------------------------------5-(5)---|
|-3-(3)-(3)-(3)---------------------------|


                                    D.S.
   E   T   S.  S  s  E  E +S   E  S  S  s
|-----------------------------------------||
|------3--(3)-----3-(3)-------------------||
|-(0)--0h==2------0-(0)--------0--------0-||
|--------------0----(0)-4-(4)-(4)----4----||
|---------------------------------5-(5)---||
|--3--(3)-(3)-(3)-------------------------||


   Pre-Chorus
    $$
    Em
    E.   S  S  S E.    S  S  S  S  S S S
||--0----0-(0)-0-0-----0-(0)-0-(0)-0-0-0-|
||o-0----0-(0)-0-0-----0-(0)-0-(0)-0-0-0-|
||--0----0-(0)-0-0-----0-(0)-0-(0)-0-0-0-|
||--2----2-(2)-2-2-----2-(2)-2-(2)-2-2-2-|
||o-2------------2-----------------------|
||--0------------------------------------|
|
|   Gtr II
|   E  E    E    E   E    Q          E
||-----7---------------------------------|
||o--------10-------10----8--------------|
||--9------------9-------------------9---|
||---------------------------------------|
||o--------------------------------------|
||---------------------------------------|


  D
   E.   S  S  S E.    S  S  S  S  S S S
|--2----2-(2)-2-2-----2-(2)-2-(2)-2-2-2-|
|--3----3-(3)-3-3-----3-(3)-3-(3)-3-3-3-|
|--2----2-(2)-2-2-----2-(2)-2-(2)-2-2-2-|
|--0------------0-----------------------|
|---------------------------------------|
|---------------------------------------|
|
| +E  E    E    E   E    Q          E
|-----7---------------------------------|
|---------10-------10----8--------------|
|-(9)-----------9-------------------9---|
|---------------------------------------|
|---------------------------------------|
|---------------------------------------|


  1.
  G                                      C9
  E.   S  S  S E.    S  S  S  S  S S S    E.   S  S  S E.    S  S  S  S  S S S
|-3----3-(3)-3-3-----3-(3)-3-(3)-3-3-3-|--0----0-(0)-0-0-----0-(0)-0-(0)-0-0-0--||
|-3----3-(3)-3-3-----3-(3)-3-(3)-3-3-3-|--3----3-(3)-3-1-----1-(1)-1-(1)-1-1-1-o||
|-0----0-(0)-0-0-----0-(0)-0-(0)-0-0-0-|--0----0-(0)-0-0-----0-(0)-0-(0)-0-0-0--||
|-0----0-(0)-0-0-----0-(0)-0-(0)-0-0-0-|--2----2-(2)-2-2-----2-(2)-2-(2)-2-2-2--||
|-2------------2-----------------------|--3------------3-----------------------o||
|-3------------------------------------|----------------------------------------||
|
| E  E    E    E   E    Q          E     +E  E    E    E   E    Q          E
|----7---------------------------------|-----7----------------------------------||
|--------10-------10----8--------------|---------10-------10----8--------------o||
|-9------------9-------------------9---|-(9)-----------9-------------------9----||
|--------------------------------------|----------------------------------------||
|--------------------------------------|---------------------------------------o||
|--------------------------------------|----------------------------------------||


  2.
  G            A
  E.   S  S  S E.    S  S  S  S  S  S  S
|-3----3-(3)-3-0-----0-(0)-0-(0)-0-(0)-0-||
|-3----3-(3)-3-2-----2-(2)-2-(2)-2-(2)-2-||
|-0----0-(0)-0-2-----2-(2)-2-(2)-2-(2)-2-||
|-0----0-(0)-0-2-------------------------||
|-2------------0-------------------------||
|-3--------------------------------------||
|
| >
| E  E    E    E   E    S  S  S  S  S  S
|----7-----------------------------------||
|--------10-------10----2--2--2--2--2--2-||
|-9------------9--------2--2--2--2--2--2-||
|----------------------------------------||
|----------------------------------------||
|----------------------------------------||


 Chorus
  D              A          G                          G
  Q  S  S  S  S  E.  S  S S E   +S  S  S  S E. S  S  S E. S  S  S
|-2--2-(2)-2-(2)-0--(0)-0-0-3-|-(3)-3-(3)-3-3--3-(3)-3-3--3-(3)-3-|
|-3--3-(3)-3-(3)-2--(2)-2-2-3-|-(3)-3-(3)-3-3--3-(3)-3-3--3-(3)-3-|
|-2--2-(2)-2-(2)-2--(2)-2-2-0-|-(0)-0-(0)-0-0--0-(0)-0-0--0-(0)-0-|
|-0--------------2--(2)-2-2-0-|-(0)-0-(0)-0-0--0-(0)-0-0--0-(0)-0-|
|----------------0----------2-|-(2)---------2----------2----------|
|---------------------------3-|-(3)--------------------3----------|


  D              A          Emadd9                     Emadd9
  Q  S  S  S  S  E.  S  S S E   +S  S  S  S E. S  S  S E. S  S  S
|-2--2-(2)-2-(2)-0--(0)-0-0-2-|-(2)-2-(2)-2-2--2-(2)-2-2--2-(2)-2-|
|-3--3-(3)-3-(3)-2--(2)-2-2-0-|-(0)-0-(0)-0-0--0-(0)-0-0--0-(0)-0-|
|-2--2-(2)-2-(2)-2--(2)-2-2-0-|-(0)-0-(0)-0-0--0-(0)-0-0--0-(0)-0-|
|-0--------------2--(2)-2-2-2-|-(2)-2-(2)-2-2--2-(2)-2-2--2-(2)-2-|
|----------------0----------2-|-(2)---------2----------2----------|
|---------------------------0-|-(0)--------------------0----------|


  D              A          G                          G
  Q  S  S  S  S  E.  S  S S E   +S  S  S  S E. S  S  S E. S  S  S
|-2--2-(2)-2-(2)-0--(0)-0-0-3-|-(3)-3-(3)-3-3--3-(3)-3-3--3-(3)-3-|
|-3--3-(3)-3-(3)-2--(2)-2-2-3-|-(3)-3-(3)-3-3--3-(3)-3-3--3-(3)-3-|
|-2--2-(2)-2-(2)-2--(2)-2-2-0-|-(0)-0-(0)-0-0--0-(0)-0-0--0-(0)-0-|
|-0--------------2--(2)-2-2-0-|-(0)-0-(0)-0-0--0-(0)-0-0--0-(0)-0-|
|----------------0----------2-|-(2)---------2----------2----------|
|---------------------------3-|-(3)--------------------3----------|


                                                           To Coda
  F                                 F          C
  E. S  S  S E. S  S  S  S  S S S   E. S  S  S E. S  S  S  S  S S S
|-1--1-(1)-1-1--1-(1)-1-(1)-1-1-1-|-1--1-(1)-1-0--0-(0)-0-(0)-0-0-0-||
|-1--1-(1)-1-1--1-(1)-1-(1)-1-1-1-|-1--1-(1)-1-1--1-(1)-1-(1)-1-1-1-||
|-2--2-(2)-2-2--2-(2)-2-(2)-2-2-2-|-2--2-(2)-2-0--0-(0)-0-(0)-0-0-0-||
|-3--3-(3)-3-3--3-(3)-3-(3)-3-3-3-|-3--3-(3)-3-2--2-(2)-2-(2)-2-2-2-||
|-3----------3--------------------|-3----------3--------------------||
|-1-------------------------------|-1-------------------------------||


 Pre-Verse
  G                     D
  E  T   S.  S   s   E  E +S   e  S S s
|---------------------------------------|
|----3--(3)-(3)--3--(3)--------7--7---7-|
|----0h==2-------0--(0)--------7--7---7-|
|------------0--(0)-(0)-4-(4)-(4)-------|
|-----------------------5-(5)-(5)---5---|
|-3-(3)-(3)-(3)-------------------------|


  G                       D
   E   T   S.  S   s   E  E +S   e  S S s
|-----------------------------------------|
|-(7)--3--(3)-(3)--3--(3)--------7--7---7-|
|-(7)--0h==2-------0--(0)--------7--7---7-|
|--------------0--(0)-(0)-4-(4)-(4)-------|
|-------------------------5-(5)-(5)---5---|
|--3--(3)-(3)-(3)-------------------------|


   Verse 3
    G                     D
    E  T   S.  S   s   E  E +S  E S  S   s   3x
||-------------------------------------------||
||o-----------------------------------------o||
||--0--0h==2-------0--(0)-------0--------0---||
||-------------0--(0)-(0)-4-(4)------4-------||
||o-----------------------5-(5)---5-(5)-(5)-o||
||--3-(3)-(3)-(3)----------------------------||


  G                       D
   E   T   S.  S   s   E  E +S  E S  S   S
|-------------------------------------------|
|-------------------------------------------|
|-(0)--0h==2-------0--(0)-------0--------0--|
|--------------0--(0)-(0)-4-(4)------4------|
|-------------------------5-(5)---5-(5)-(5)-|
|--3--(3)-(3)-(3)---------------------------|


  C                       C
  E  S   s  S  s   S   s  s  S  S E  S  S S
|-------------------------------------------|
|-----------------------------------------0-|
|----0--(0)----0--(0)-(0)----0----2-(2)-2---|
|----2---0--2------2---0--2-----2----2------|
|-3-(3)-----3-(3)---------3-(3)-------------|
|-------------------------------------------|


  C                       C
  E  S   s  S  s   S   s  s  S  S E  S  S S
|-------------------------------------------||
|-----------------------------------------0-||
|----0--(0)----0--(0)-(0)----0----2-(2)-2---||
|----2---0--2------2---0--2-----2----2------||
|-3-(3)-----3-(3)---------3-(3)-------------||
|-------------------------------------------||


  G                     D
  E  T   S.  S   s   E  E +S   e  S S s
|---------------------------------------|
|----3--(3)-(3)--3--(3)--------7--7---7-|
|----0h==2-------0--(0)--------7--7---7-|
|------------0--(0)-(0)-4-(4)-(4)-------|
|-----------------------5-(5)-(5)---5---|
|-3-(3)-(3)-(3)-------------------------|


  G                       D
   E   T   S.  S   s   E  E +S   e  S S s
|-----------------------------------------|
|-(7)--3--(3)-(3)--3--(3)--------7--7---7-|
|-(7)--0h==2-------0--(0)--------7--7---7-|
|--------------0--(0)-(0)-4-(4)-(4)-------|
|-------------------------5-(5)-(5)---5---|
|--3--(3)-(3)-(3)-------------------------|


  C                       C
  E  S   s  S  s   S   s  s  S  S E  S  S S
|-------------------------------------------|
|-----------------------------------------0-|
|----0--(0)----0--(0)-(0)----0----2-(2)-2---|
|----2---0--2------2---0--2-----2----2------|
|-3-(3)-----3-(3)---------3-(3)-------------|
|-------------------------------------------|


  C                       C
  E  S   s  S  s   S   s  s  S  S E  S  S S
|-------------------------------------------||
|-----------------------------------------0-||
|----0--(0)----0--(0)-(0)----0----2-(2)-2---||
|----2---0--2------2---0--2-----2----2------||
|-3-(3)-----3-(3)---------3-(3)-------------||
|-------------------------------------------||


  G                     D
  E  T   S.  S   s   E  E +S   e  S S s
|---------------------------------------|
|----3--(3)-(3)--3--(3)--------7--7---7-|
|----0h==2-------0--(0)--------7--7---7-|
|------------0--(0)-(0)-4-(4)-(4)-------|
|-----------------------5-(5)-(5)---5---|
|-3-(3)-(3)-(3)-------------------------|


                          D.S.S. al Coda
  G                       D
   E   T   S.  S   s   E  E +S   e  S S s
|-----------------------------------------||
|-(7)--3--(3)-(3)--3--(3)--------7--7---7-||
|-(7)--0h==2-------0--(0)--------7--7---7-||
|--------------0--(0)-(0)-4-(4)-(4)-------||
|-------------------------5-(5)-(5)---5---||
|--3--(3)-(3)-(3)-------------------------||


 Pre-Bridge
  &
                            <
  E  E  E  E  E  E  E  E    E  E  E  E  E  E  E  S  S
|-3-(3)-3-(3)-3-(3)-3-(3)-|-3-(3)-3-(2)-3-(3)-3-(3)-3-||
|-0-(0)-0-(0)-0-(0)-0-(0)-|-0-(0)-0-(0)-0-(0)-0-(0)-0-||
|-0-(0)-0-(0)-0-(0)-0-(0)-|-0-(0)-0-(0)-0-(0)-0-(0)-0-||
|-0-(0)-0-(0)-0-(0)-0-(0)-|-0-(0)-0-(0)-0-(0)-0-(0)-0-||
|-2-----------2-----------|-2-----2-----2--2--2--2--2-||
|-3-----------3-----------|-2-----2-----3--3--3--3--3-||

[ Tab from: http://www.guitartabs.cc/tabs/j/john_mayer/why_georgia_tab_ver_2.html ]
   Bridge
    F5         Bb           C           Bb
    PM|        PM|           PM|          PM
    E E  E   E E E  E   E    E  E E  E  E E E  E
||-------1--(1)-----------|------------------------||
||o------1--(1)-----6--(6)|-------8-(8)-----6-(6)-o||
||------------------7--(7)|-------9-(9)-----7-(7)--||
||--3-3-(3)--3s8-8-(8)--8s|=10-10---10--8-8----8---||
||o-----------------------|-----------------------o||
||------------------------|------------------------||


    G         C           D         C
    E E E S S E E E S S   E E E S S E E E S S
||--3-3-3-3-3-0-0-0-0-0-|-2-2-2-2-2-0-0-0-0-0--||
||o-0-0-0-0-0-1-1-1-1-1-|-3-3-3-3-3-1-1-1-1-1-o||
||--0-0-0-0-0-0-0-0-0-0-|-2-2-2-2-2-0-0-0-0-0--||
||--0-0-0-0-0-2-2-2-2-2-|-0---0-----2-2-2-2-2--||
||o-2---2-----3---3-----|-----------3---3-----o||
||--3---3---------------|----------------------||


  Em   D    C/E       F
  Q.   H    E   +Q.    H    +E
|-0----2----0-|-(0)---^1----(1)-||
|-0----3----1-|-(1)---^1----(1)-||
|-0----2----0-|-(0)---^2----(2)-||
|-2----0----2-|-(2)---^3----(3)-||
|-2-----------|-------^3----(3)-||
|-0-----------|-------^1----(1)-||


 Pre-Verse 4
  G                     D
 4/4
  Gtr I
  E  T   S.  S   s   E  E +S   E  S  S  s
|-----------------------------------------|
|----3--(3)-(3)--3--(3)-------------------|
|----0h==2-------0--(0)--------0--------0-|
|------------0--(0)-(0)-4-(4)-(4)----4----|
|---------------------------------5-(5)---|
|-3-(3)-(3)-(3)---------------------------|


    G                     D
     E   T   S.  S  s  E  E +S   E  S  S  s  3x
||-------------------------------------------||
||o------3--(3)-----3-(3)-------------------o||
||--(0)--0h==2------0-(0)--------0--------0--||
||---------------0----(0)-4-(4)-(4)----4-----||
||o---------------------------------5-(5)---o||
||---3--(3)-(3)-(3)--------------------------||


   Verse 4
    G                     D
    E  T   S.  S   s   E  E +S  E S  S   s   3x
||-------------------------------------------||
||o-----------------------------------------o||
||--0--0h==2-------0--(0)-------0--------0---||
||-------------0--(0)-(0)-4-(4)------4-------||
||o-----------------------5-(5)---5-(5)-(5)-o||
||--3-(3)-(3)-(3)----------------------------||


  G                       D
   E   T   S.  S   s   E  E +S  E S  S   S
|-------------------------------------------|
|-------------------------------------------|
|-(0)--0h==2-------0--(0)-------0--------0--|
|--------------0--(0)-(0)-4-(4)------4------|
|-------------------------5-(5)---5-(5)-(5)-|
|--3--(3)-(3)-(3)---------------------------|


  C                       C
  E  S   s  S  s   S   s  s  S  S E    S  S S
|---------------------------------------------|
|-------------------------------------------0-|
|----0--(0)----0--(0)-(0)----0----2---(2)-2---|
|----2---0--2------2---0--2-----2------2------|
|-3-(3)-----3-(3)---------3-(3)---------------|
|---------------------------------------------|
|
| Gtr II
| E  E      E      E      E     E   E     E
|---------------------------------------------|
|-----------5-----------------------5---------|
|-5----------------5----------------------5---|
|-5--5--------------------------5-------------|
|-3-----------------------3-------------------|
|---------------------------------------------|


  C                       C
  E  S   s  S  s   S   s  s  S  S E    S  S S
|---------------------------------------------|
|-------------------------------------------0-|
|----0--(0)----0--(0)-(0)----0----2---(2)-2---|
|----2---0--2------2---0--2-----2------2------|
|-3-(3)-----3-(3)---------3-(3)---------------|
|---------------------------------------------|
|
| E  E      E      E      E     E   E     E
|---------------------------------------------|
|-----------5-----------------------5---------|
|-5----------------5----------------------5---|
|-5--5--------------------------5-------------|
|-3-----------------------3-------------------|
|---------------------------------------------|


  G                     D
  E  T   S.  S   s   E  S  S  S  E  S  S  s
|-------------------------------------------|
|----3--(3)-(3)--3--(3)---------------------|
|----0h==2-------0--(0)----0-----0--------0-|
|------------0--(0)-(0)-4-(4)-4-(4)----4----|
|-----------------------5-----------5-(5)---|
|-3-(3)-(3)-(3)-----------------------------|


  G                     D
  E  T   S.  S   s   E  S  S  S  E  S  S  s
|-------------------------------------------||
|----3--(3)-(3)--3--(3)---------------------||
|----0h==2-------0--(0)----0-----0--------0-||
|------------0--(0)-(0)-4-(4)-4-(4)----4----||
|-----------------------5-----------5-(5)---||
|-3-(3)-(3)-(3)-----------------------------||


 Pre-Out Chorus
  Em
  E  S  S s  S E    S S s  S S  S s  S
|--------------------------------------|
|--------------------------------------|
|-0------------0-----------------------|
|-2-(2)-2-2-(2)2---(2)2-2-(2)2-(2)2-(2)|
|-2-(2)-2-2-(2)2---(2)2-2-(2)2-(2)2-(2)|
|-0-(0)-0-0-(0)0---(0)0-0-(0)0-(0)0-(0)|
|
| Gtr II
| E +S  S S  S S S  S S S  S S  S S  S
|--------------------------------------|
|--------------------------------------|
|--------------------------------------|
|-2-(2)p0h2h=4h5p4p=2p0h2h=4h5p=4p2p=0h|
|--------------------------------------|
|--------------------------------------|


  D/F#
  E    E    S  s E    S  S  s  S S  S  s  S
|-2--------------2----------------------------|
|-3---(3)---3--3-3---(3)-3--3-(3)3-(3)-3-(3)--|
|-2---(2)---2--2-2---(2)-2--2-(2)2-(2)-2-(2)--|
|-0---(0)---0--0-0---(0)-0--0-(0)0-(0)-0-(0)--|
|---------------------------------------------|
|-2---(2)--(2)(2)2---(2)(2)(2)(2)2-(2)(2)(2)--|
|
| S S  S S  S  S S S  S  S  S  S S  S  S  S
|---------------------------------------------|
|---------------------------------------------|
|---------------------------------------------|
|-2h4p=2p0h=2h=4h5p4p=2p=0h=2h=4h5p=4p=2p=0---|
|---------------------------------------------|
|---------------------------------------------|


  E  E    S s E    S S s  S S  S s  S
|-3-----------3-----------------------|
|-0-----------0-----------------------|
|-0-----------0-----------------------|
|-0-(0)---0-0-0---(0)0-0-(0)0-(0)0-(0)|
|-2-(2)---2-2-2---(2)2-2-(2)2-(2)2-(2)|
|-3-(3)---3-3-3---(3)3-3-(3)3-(3)3-(3)|
|
| E +S  S S S S S  S S S  S S  S S  S
|-------------------------------------|
|-------------------------------------|
|-------------------------------------|
|-2-(2)p0h2h4h5p4p=2p0h2h=4h5p=4p2p=0h|
|-------------------------------------|
|-------------------------------------|


  E    E   S s E    S S s  S S  S s  S    E E E E E E E  E
|-0------------0------------------------|-------------------||
|-2------------2------------------------|-2-2-2-2-2-2-2-(2)-||
|-2---(2)--2-2-2---(2)2-2-(2)2-(2)2-(2)-|-2-2-2-2-2-2-2-(2)-||
|-2---(2)--2-2-2---(2)2-2-(2)2-(2)2-(2)-|-2-2-2-2-2-2-2-(2)-||
|-0---(0)--0-0-0---(0)0-0-(0)0-(0)0-(0)-|-0-0-0-0-0-0-0-(0)-||
|---------------------------------------|-------------------||
|
| S S  S S S S S S  S S S  S S  S S  S    E E E E E E E  E
|---------------------------------------|-------------------||
|---------------------------------------|-------------------||
|---------------------------------------|-------------------||
|-2h4p=2p0h2h4h5p4p=2p0h2h=4h5p=4p2p=0--|-2-2-2-2-2-2-2-(2)-||
|---------------------------------------|-0-0-0-0-0-0-0-(0)-||
|---------------------------------------|-------------------||


 Out-Chorus
  D              A          G               G/B        G
  Q  S  S  S  S  E.  S  S S E   +S  S  S  S E. S  S  S E. S  S  S
|-2--2-(2)-2-(2)-0--(0)-0-0-3-|-(3)-3-(3)-3-3--3-(3)-3-3--3-(3)-3-|
|-3--3-(3)-3-(3)-2--(2)-2-2-3-|-(3)-3-(3)-3-3--3-(3)-3-3--3-(3)-3-|
|-2--2-(2)-2-(2)-2--(2)-2-2-0-|-(0)-0-(0)-0-0--0-(0)-0-0--0-(0)-0-|
|-0--------------2--(2)-2-2-0-|-(0)-0-(0)-0-0--0-(0)-0-0--0-(0)-0-|
|----------------0----------2-|-(2)---------2----------2----------|
|---------------------------3-|-(3)--------------------3----------|
|
| Gtr II
| Q  S  S  S  S  E.  S  S S E    S  S  S  S E. S  S  S E. S  S  S
|-2--2-(2)-2-(2)-0--(0)-0-0-3-|--3--3-(3)-3-3--3-(3)-3-3--3-(3)-3-|
|-3--3-(3)-3-(3)-2--(2)-2-2-3-|--3--3-(3)-3-3--3-(3)-3-3--3-(3)-3-|
|-2--2-(2)-2-(2)-2--(2)-2-2-0-|--0--0-(0)-0-0--0-(0)-0-0--0-(0)-0-|
|-0--------------2--(2)-2-2-0-|--0--0-(0)-0-0--0-(0)-0-0--0-(0)-0-|
|----------------0----------2-|--2----------2----------2----------|
|---------------------------3-|--3---------------------3----------|


  D              A          Emadd9          Emadd9/B   Emadd9
  Q  S  S  S  S  E.  S  S S E   +S  S  S  S E. S  S  S E. S  S  S
|-2--2-(2)-2-(2)-0--(0)-0-0-2-|-(2)-2-(2)-2-2--2-(2)-2-2--2-(2)-2-|
|-3--3-(3)-3-(3)-2--(2)-2-2-0-|-(0)-0-(0)-0-0--0-(0)-0-0--0-(0)-0-|
|-2--2-(2)-2-(2)-2--(2)-2-2-0-|-(0)-0-(0)-0-0--0-(0)-0-0--0-(0)-0-|
|-0--------------2--(2)-2-2-2-|-(2)-2-(2)-2-2--2-(2)-2-2--2-(2)-2-|
|----------------0----------2-|-(2)---------2----------2----------|
|---------------------------0-|-(0)--------------------0----------|
|
| Q  S  S  S  S  E.  S  S S E    S  S  S  S E. S  S  S E. S  S  S
|-2--2-(2)-2-(2)-0--(0)-0-0-2-|--2--2-(2)-2-2--2-(2)-2-2--2-(2)-2-|
|-3--3-(3)-3-(3)-2--(2)-2-2-0-|--0--0-(0)-0-0--0-(0)-0-0--0-(0)-0-|
|-2--2-(2)-2-(2)-2--(2)-2-2-0-|--0--0-(0)-0-0--0-(0)-0-0--0-(0)-0-|
|-0--------------2--(2)-2-2-2-|--2--2-(2)-2-2--2-(2)-2-2--2-(2)-2-|
|----------------0----------2-|--2----------2----------2----------|
|---------------------------0-|--0---------------------0----------|


  D              A          G               G/B        G
  Q  S  S  S  S  E.  S  S S E   +S  S  S  S E. S  S  S E. S  S  S
|-2--2-(2)-2-(2)-0--(0)-0-0-3-|-(3)-3-(3)-3-3--3-(3)-3-3--3-(3)-3-|
|-3--3-(3)-3-(3)-2--(2)-2-2-3-|-(3)-3-(3)-3-3--3-(3)-3-3--3-(3)-3-|
|-2--2-(2)-2-(2)-2--(2)-2-2-0-|-(0)-0-(0)-0-0--0-(0)-0-0--0-(0)-0-|
|-0--------------2--(2)-2-2-0-|-(0)-0-(0)-0-0--0-(0)-0-0--0-(0)-0-|
|----------------0----------2-|-(2)---------2----------2----------|
|---------------------------3-|-(3)--------------------3----------|


  F          F/C                    F          F/C
  E. S  S  S E. S  S  S  S  S S S   E. S  S  S E. S  S  S  S  S S S
|-1--1-(1)-1-1--1-(1)-1-(1)-1-1-1-|-1--1-(1)-1-1--1-(1)-1-(1)-1-1-1-|
|-1--1-(1)-1-1--1-(1)-1-(1)-1-1-1-|-1--1-(1)-1-1--1-(1)-1-(1)-1-1-1-|
|-2--2-(2)-2-2--2-(2)-2-(2)-2-2-2-|-2--2-(2)-2-2--2-(2)-2-(2)-2-2-2-|
|-3--3-(3)-3-3--3-(3)-3-(3)-3-3-3-|-3--3-(3)-3-3--3-(3)-3-(3)-3-3-3-|
|-3----------3--------------------|-3----------3--------------------|
|-1-------------------------------|-1-------------------------------|
|
| Gtr II
| E. S  S  S E. S  S  S  S  S S S   E. S  S  S E. S  S  S  S  S S S
|-1--1-(1)-1-1--1-(1)-1-(1)-1-1-1-|-1--1-(1)-1-1--1-(1)-1-(1)-1-1-1-|
|-1--1-(1)-1-1--1-(1)-1-(1)-1-1-1-|-1--1-(1)-1-1--1-(1)-1-(1)-1-1-1-|
|-2--2-(2)-2-2--2-(2)-2-(2)-2-2-2-|-2--2-(2)-2-2--2-(2)-2-(2)-2-2-2-|
|-3--3-(3)-3-3--3-(3)-3-(3)-3-3-3-|-3--3-(3)-3-3--3-(3)-3-(3)-3-3-3-|
|-3----------3--------------------|-3----------3--------------------|
|-1-------------------------------|-1-------------------------------|


  F          F/C                    F          C                      G
                                                                      >
  E. S  S  S E. S  S  S  S  S S S   E. S  S  S E. S  S  S  S  S S S   W
|-1--1-(1)-1-1--1-(1)-1-(1)-1-1-1-|-1--1-(1)-1-0--0-(0)-0-(0)-0-0-0-|-3----*|
|-1--1-(1)-1-1--1-(1)-1-(1)-1-1-1-|-1--1-(1)-1-1--1-(1)-1-(1)-1-1-1-|-0----*|
|-2--2-(2)-2-2--2-(2)-2-(2)-2-2-2-|-2--2-(2)-2-0--0-(0)-0-(0)-0-0-0-|-0----*|
|-3--3-(3)-3-3--3-(3)-3-(3)-3-3-3-|-3--3-(3)-3-2--2-(2)-2-(2)-2-2-2-|-0----*|
|-3----------3--------------------|-3----------3--------------------|-2----*|
|-1-------------------------------|-1-------------------------------|-3----*|
|
|                                                                     >
| E. S  S  S E. S  S  S  S  S S S   E. S  S  S E. S  S  S  S  S S S   W
|-1--1-(1)-1-1--1-(1)-1-(1)-1-1-1-|-1--1-(1)-1-0--0-(0)-0-(0)-0-0-0-|-3----*|
|-1--1-(1)-1-1--1-(1)-1-(1)-1-1-1-|-1--1-(1)-1-1--1-(1)-1-(1)-1-1-1-|-0----*|
|-2--2-(2)-2-2--2-(2)-2-(2)-2-2-2-|-2--2-(2)-2-0--0-(0)-0-(0)-0-0-0-|-0----*|
|-3--3-(3)-3-3--3-(3)-3-(3)-3-3-3-|-3--3-(3)-3-2--2-(2)-2-(2)-2-2-2-|-0----*|
|-3----------3--------------------|-3----------3--------------------|-2----*|
|-1-------------------------------|-1-------------------------------|-3----*|




--------------------------------------------------------------------------------


Duration Legend
---------------
W - whole; H - half; Q - quarter; E - 8th; S - 16th; T - 32nd; X - 64th; a - acciaccatura
+ - note tied to previous; . - note dotted; .. - note double dotted
Uncapitalized letters represent notes that are staccato (1/2 duration)
Irregular groupings are notated above the duration line
Duration letters will always appear directly above the note/fret number it represents the
duration for.  Duration letters with no fret number below them represent rests.  Multi-
bar rests are notated in the form Wxn, where n is the number of bars to rest for.  Low
melody durations appear below the staff

Tablature Legend
----------------
 h   - hammer-on
 p   - pull-off
 b   - bend
 pb  - pre-bend
 r   - bend release (if no number after the r, then release immediately)
 /\  - slide into or out of (from/to "nowhere")
 s   - legato slide
 S   - shift slide
 - natural harmonic
[n]  - artificial harmonic
n(n) - tapped harmonic
 ~   - vibrato
 tr  - trill
 T   - tap
 TP  - trem. picking
 PM  - palm muting
\n/  - tremolo bar dip; n = amount to dip
 \n  - tremolo bar down
 n/  - tremolo bar up
/n\  - tremolo bar inverted dip
 =   - hold bend; also acts as connecting device for hammers/pulls
 <> - volume swell (louder/softer)
 x   - on rhythm slash represents muted slash
 o   - on rhythm slash represents single note slash

Misc Legend
-----------
 |  - bar
||  - double bar
||o - repeat start
o|| - repeat end
*|  - double bar (ending)
 :  - bar (freetime)
 $  - Segno
 &  - Coda
Tempo markers -  = BPM(8/16=s8/s16), where s8 = swing 8ths, s16 = swing 16ths
Comments