John Mayer - Vultures Chords & Tabs

 

Vultures Chords & Tabs

John Mayer Chords & Tabs

Version: 2 Type: Tab

Vultures Tab

Song: Vultures
By: John Mayer Trio
Album: Try
Tabbed by: cheap_mercenary (thanks to Gabe Opio for the layout)

I'm pretty sure this is 100% correct.  Direct TV had a John Mayer concert on the 
channel, and John played this song high up the neck.

Intro (Clean)
e------------------------------------------------------|
b------------------------------------------------------|
g-----------13b---------------------13--13-------------|
d---14--16--14b--16--14-----14--16--14--14--16--14-----|
a---14--16-------16--14-----14--16----------16--14-----|
E------------------------------------------------------|
[ Tab from: http://www.guitartabs.cc/tabs/j/john_mayer/vultures_tab_ver_2.html ]
Verses
e------------------------------------------------------|
b------------------------------------------------------|
g-----------13b---------------------13--13-------------|
d---14--16--14b--16--14-----14--16--14--14--16--14-----|
a---14--16-------16--14-----14--16----------16--14-----|
E------------------------------------------------------|
"Some of us, were hardly..."
"How do they find me and...."
"Wheels up, I got to...."
"Whatcha gonna do about it.."

Pre Chorus
e--------------------------------------------------|
b--------------------------------------------------|
g--------13b--13--------13--13b--------------------|
d---14---14b--14----14--14--14b--------------------|
a---14--------------14-----------------------------|
E--------------------------------------------------|
"Talk to the water..."