John Mayer - Try Chords & Tabs

 

Try Chords & Tabs

John Mayer Chords & Tabs

Version: 1 Type: Tab 0 ratings
1 star 2 stars 3 stars 4 stars 5 stars
comments

Try Tab

This is what i got, it prob isnt to accurate.

Standard Tunnung;


Intro
------------------------|------------------------|
--11-8------------------|------------------------|
-------10-8-------------|---------------8--------|
------------10-8-10---8-|-------8-10-------------|
------------------------|--10--------------------|
------------------------|------------------------|


Verses
------------------------|------------------------|
------8---8--9------8---|------8---8--8------8---|
------9---9--9------9---|------9---9--9------9---|
-----10--10-10-----10---|-----10--10-10-----10---|
------------------------|-0-0------------0-------|
-8-8------------8-------|------------------------|
[ Tab from: http://www.guitartabs.cc/tabs/j/john_mayer/try_tab.html ]
------------------------|------------------------|
------8---8--9------8---|------8---8--8------8---|
------9---9--9------9---|------9---9--9------9---|
-----10--10-10-----10---|-----10--10-10-----10---|
-8-8------------8-------|-0-0------------0-------|
------------------------|------------------------|


Chorus
------------------------|---------------------------|
------8---8--9------8---|--------11--11-11-----11---|
------9---9--9------9---|--------12--12-12-----12---|
-----10--10-10-----10---|--------13--13-13-----13---|
------------------------|---------------------------|
-8-8------------8-------|---11-11----------11-------|

------------------------|--------------------------|
-----10--10-10-----10---|--------5---5--5------5---|
-----10--10-10-----10---|--------6---6--6------6---|
-----10--10-10-----10---|--------7---7--7------7---|
-8--------------8-------|--------------------------|
------------------------|---5-5------------5-------|
Comments