John Mayer - Something To Believe In Chords & Tabs

 

Something To Believe In Chords & Tabs

John Mayer Chords & Tabs

Version: 1 Type: Tab 0 ratings
1 star 2 stars 3 stars 4 stars 5 stars
comments

Something To Believe In Tab

John Mayer - Something to Believe in
Tabbed by: Chris Baird


Capo 5
h- Hammer on
p- Pull off
~- Let ring while you play the rest

1
e--X--X---X--X-|    
b--3--3---3--3-|  
G--0--0---0-0-| 
D--0--0---0--0-|
A--2--3---0--X-|    
E--X--X0h2--3-|   

2
e--X--X--X--X--X--2p0-----|
b--3--3--3--3-3~-------3--|
G--0--0--0--0-0~----------|
D--0--0--0--0-0~----------|
A--3--2--0--X-X-----------|
E--X--X--X--3-2~----------|

3
e--X--X--X--X----X----X----X----X----X--X--|
b--3--3--3--3----3----3----2----3----2--3--|
G--0--0--0--0----2----2----2----2----2--0--|
D--X--4--2-0----0----0----2----0----2--0--|
A--X--X--X--X----X----X----0----X----0--X--|
E--X--X--X--X----2----3----X----X----X--3--|

4                  REPEAT 3X
e--X--X--X--X---*--X--X--X--X----*--X--X--|
b--3--3--3--3---*--3--3--3--3----*--2--3--|
G--0--0--0--0---*--0--2--0--2----*--2--2--|
D--0--0--0--0--*-(2)-0--2--0----*--2--0--|
A--2--3--X--X--*-(2)-X--3--X----*--0--X--|
E--X--X--2--32-*--0--2--X--3--2-*--X--3--|


Intro(1) 2x
[ Tab from: http://www.guitartabs.cc/tabs/j/john_mayer/something_to_believe_in_tab.html ]
(1)
I never was the one who had my head on straight
(1)
So I got myself this job and now Im praying everyday
(2)
for my bags to be inspected
(3)
(for) some crazy reason Im always suspected
of smuggling something through, like smoke or dope
or airplane glue (??????)



chorus
(4)
I know you got something to believe in
Down deep inside your soul
Hey friend, dont you stop believing
In the dreams that you had
When you were just a lad

(can I have a little more high-end up here?)

repeats everything for the second verse and chorus

(1)
can I have a little more vocal up here, sorry


end on   e(3)-
	 b--3--
	 G--0--
	 D--0--
	 A--2--
	 E--3--



Jam with something like:
For those who are guitar scholars, it's just C Ionian
End on (#) thats the root
e------------------------------------------------13-15--|
b-------------------------------------(11)-13-15--------|
G-------------------------------12-14-------------------|
D--------------------(10)/12-14-------------------------|
A------------10-12-14-----------------------------------|
E-(8)/10-12--------------------------------------------|

Or

e------------------------------------5-7-(8)--|
b------------------------------5-6-8----------|
G----------------------4-(5)-7----------------|
D----------------3-5-7------------------------|
A--------(3)-5-7------------------------------|
E--3-5-7--------------------------------------|
Comments