John Mayer - Not Myself Chords & Tabs

 

Not Myself Chords & Tabs

John Mayer Chords & Tabs

Version: 2 Type: Tab 0 ratings
1 star 2 stars 3 stars 4 stars 5 stars
comments

Not Myself Tab

-------------------------------------------------------------------------------
			     Not Myself - John Mayer
-------------------------------------------------------------------------------

By:Fatty22

Capo 1st Fret (tab is relative to the Capo)

Key:
/-slide
h-hammer on
p-pull off
v-vibrato
~-ring out
x-mute string
I'm about 95% sure of this tab. Not showing the exact rythm, listen to the cd.  

Intro 
e|----3-------2-------0-------0----|
B|----3-------3-------8-------8----|
G|----0-------0-------x-------0----|
D|----0-------0-------7-------x----|
A|----x-------x-------8-------7----|
E|----3-------2-------x-------8----|
Chord#1      #2      #3      #4

Verse                                                         
e|----3-------2-------0-------0-------3-------2-------0-------x----|
B|----3-------3-------8-------8-------3-------3-------8-------x----|
G|----0-------0-------x-------0-------0-------0-------x-------7----|
D|----0-------0-------7-------x-------0-------0-------7-------8----|
A|----x-------x-------8-------7-------x-------x-------8-------x----|
E|----3-------2-------x-------8-------3-------2-------x-------6----|

Chorus (2x) Guitar 1
e|----3-----2-----3-----2-----3-----2-----3-----2-----0-----0-----3-----|
B|----3-----3-----3-----3-----3-----3-----3-----3-----3-----3-----3-----|
G|----0-----0-----0-----0-----0-----0-----0-----0-----0-----0-----0-----|
D|----0-----0-----0-----0-----x-----x-----x-----x-----4-----x-----x-----|
A|----x-----x-----x-----x-----3-----3-----3-----3-----5-----3-----3-----|
E|----3-----3-----3-----3-----x-----x-----x-----x-----x-----0-----0-----|

Chorus (2x) Guitar 2  (Listen to the Cd for the timing)
e|----3-----2-----3-----2-----3-----2-----3-----2-----3-----2-----3-----2----|
B|---------------------------------------------------------------------------|
G|---------------------------------------------------------------------------|
D|---------------------------------------------------------------------------|
A|---------------------------------------------------------------------------|
E|---------------------------------------------------------------------------|

e|---------------------------------------------------------------------------|
B|----7-----5-----7-----5----------------------------------------------------|
G|---------------------------------------------------------------------------|
D|---------------------------------------------------------------------------|
A|---------------------------------------------------------------------------|
E|---------------------------------------------------------------------------|
[ Tab from: http://www.guitartabs.cc/tabs/j/john_mayer/not_myself_tab_ver_2.html ]
Part 1 (And I.....)
e|---------------------------------------------------------------------------|
B|--------------15-----------10h12p10----------8-----------------------------|
G|-----------12-----------11-11----11---------9------------------------------|
D|--------14--------------------------------10-------------------------------|
A|-----------------------------------------x---------------------------------|
E|----12--------------10------------------8----------------------------------|

Part 2 (I always do....)
e|---------------------------------------------------------------------------|
B|---8-------5-------10---------3--------------------------------------------|
G|---7-------4--------9---------0--------------------------------------------|
D|---7-------4--------9---------x--------------------------------------------|
A|---x-------x--------x---------3--------------------------------------------|
E|---7-------4--------9------------------------------------------------------|
                               ***                      ***Chord #5
Solo (Guitar 1 plays the "Intro Chords")
e|---------------------------------------------------------------------------|
B|---------------------------------------------------------------------------|
G|----------4-4\7---\4\2-2---2-2-4-2-4--4-4-4\5-5-4-4-2----------------------|
D|-----5h7-------------------------------------------------5-5h7-------------|
A|-5h7------------------------------------------------------------7v---------|
E|---------------------------------------------------------------------------|
  #5           #1       #2                   #3                   #4

e|---------------------------------------------------------------------------|
B|----------------------8v-8-7----\8\6-6v--\8\6\5v---------------------------|
G|----------------0h2\4--------7v--------------------------------------------|
D|------------0h2--------------------------------------------------3---------|
A|-5h7p5---0h2-------------------------------------------------3-6-----------|
E|----------------------------------------------------------\4---------------|
                       #1     #2       #3       #4

(Intro) 

(Verse) Suppose I said 
I am on my best behavior 
There are times 
I lose my worried mind 

(Chorus) Would you want me when Iím not myself 
Wait it out while I am someone else 

(Verse) Suppose I said 
colors change for no good reason 
Words will go 
from poetry to prose 

(Chorus) Would you want me when Iím not myself 
Wait it out while I am someone else 

(Part1) And I 
in time 
will come around 
(Part2) I always do 
for you  

(Solo) 

(Intro) 

(Verse) Suppose I said 
youíre my saving grace  

(Chorus) Would you want me when Iím not myself 
Wait it out while I am someone else 
Would you want me when Iím not myself 
Wait it out while I am someone else 

I basically put together tabs and made some revisions.  Plus tabbed out the 
solo.  If you think somethings wrong or you you don't understand tab email me 
at turbochink@hotmail.com
===============================================================================
Comments