John Mayer - My Stupid Mouth Chords & Tabs

 

My Stupid Mouth Chords & Tabs

John Mayer Chords & Tabs

Version: 2 Type: Tab 0 ratings
1 star 2 stars 3 stars 4 stars 5 stars
comments

My Stupid Mouth Tab

Hey my name's Carly, I am in loveeee with John Mayer, and this is my first tab I'm
submitting that is his music, so hopefully i did okay. If you have any questions or
comments, my email address is babyblue72890@sbcglobal.net. Thanks for viewing!

[ Tab from: http://www.guitartabs.cc/tabs/j/john_mayer/my_stupid_mouth_tab_ver_2.html ]
E-------------------------------------------------------------------------|
B-------------3-3-3-------------2-2-2-------------3-3-3-------------3-3-3-|
G-----2-------2-2-2-----2-------2-2-2-----2-------2-2-2-----2-------2-2-2-|
D---0---0-----0-0-0-------0-----0-0-0-------0-----0-0-0-------0-----0-0-0-|
A-------------0-0-0-------------4-4-4-------------x-x-x-------------x-x-x-|
E-------------0-0-0-------------------------------2-2-2-------------3-3-3-|

E-------------------------------------------------------------------------|
B-------------3-3-3-------------2-2-2-------------3-3-3-------------3-3-3-|
G---2---------2-2-2-----2-------2-2-2-----2-------2-2-2-----2-------2-2-2-|
D-----0-------0-0-0-------0-----0-0-0-------0-----0-0-0-------0-----0-0-0-|
A-------------2-2-2-------------0-0-0-------------x-x-x-------------x-x-x-|
E-------------------------------2-2-2-------------3-3-3-------------3-3-3-|


And that's the intro. I'm not sure if it's accurate, but I mean it sounds right, so
I'm guessing it is somewhat. If it's not, please email me and tell me, 'cause I want
to play it correctly. Thanks again.
Comments