John Mayer - In Your Atmosphere Chords & Tabs

 

In Your Atmosphere Chords & Tabs

John Mayer Chords & Tabs

Version: 2 Type: Tab 0 ratings
1 star 2 stars 3 stars 4 stars 5 stars
comments

In Your Atmosphere Tab

Verse

-0---0-------------
(9)-(10)-----------
-9---11------------ x a bunch 
-9---9-------------
-7---9-------------
-0---0-------------

A hotel key...a bedroom made.....
-0---0--0---------0-0-------
-0---0--0---------0-0-------
-x---8--6---------8-x-------
-11--9--7---------9-11------ x1
-11--9--7---------9-11------
-9---7--5---------7-9-------
[ Tab from: http://www.guitartabs.cc/tabs/j/john_mayer/in_your_atmosphere_tab_ver_2.html ]
Chorus

I'm Going to stear clear...
-0---0--0--
-0---0--0--
-6---x--8--
-7---11-9-- x4
-7---11-9--
-0---9--7--

Cause i'd die if i saw you......
-0-0-0--
-0-0-0--
-x-6-8--
-6-7-9-- Sometimes followed by repeating the first two chords 2x
-6-7-9--
-4-5-7--

So i don't think i'm going to go to LA anymore
-0-0--0--
-0-0-(9)-
-6-8--9--
-7-9--9--
-7-9--7--
-5-7--0--
Comments