John Mayer - In Your Atmosphere Chords & Tabs

 

In Your Atmosphere Chords & Tabs

John Mayer Chords & Tabs

Version: 1 Type: Tab 0 ratings
1 star 2 stars 3 stars 4 stars 5 stars
comments

In Your Atmosphere Tab

"In You Atmosphere"
John Mayer

Tab by Ian C.


Standard tunin'
He may be using a capo because it sounds higher on the live pitch, 
but you can play it like this and it sounds perfectly alright.

Intro/Verse


"I think I want to go to LA Anymore..."

--0----0----0----0
--0----0----0----0
--3----3----3----3
--2----2----2----2
--2----0----2----0
--0----0----0----0

Riff (verse)
---------------------
---------------------
--2-2-2-2-1----------
--4-4-4-4-2-2-2-2-2-2
------------4-4-4-4-2
---------------------

"I dont know what its like to blame..."
[ Tab from: http://www.guitartabs.cc/tabs/j/john_mayer/in_your_atmosphere_tab.html ]
--0-----0--0--0-----0
--0--9--7--5--5--5--0
--3--9--8--6--6--6--0
--2--9--9--7--7--7--3
--2-----9--7--7--7--2
--0--9--7--5--5--7--0


Chourus

"I'm gunna steer clear..."

--0--0--0--        --0-----0
--0--5--0--        --0--7--0
--2--4--4--  or... --2--9--8
--4--6--4--        --4--9--9
--4--4--2--        --4-----9
--2--------        --2--9--7

"Cause I'd die if I saw you.."

-----0-----0
--9--0-----0
--9--8--6--6
--9--9--7--7
-----9--7--7
--9--7--4--5

Ending

"Gunna stay... gunna stay..."

--------------
-----2-----2--
--2--2--2--2--  (repeat)
--2--2--2--2--
-----0-----0--
--4-----4-----
Comments