John Mayer - In Repair Chords & Tabs

 

In Repair Chords & Tabs

John Mayer Chords & Tabs

Version: 1 Type: Tab

In Repair Tab

Verse

e:---0----0----0-|
B:---5----3----3-|
G:---6----4----2-|
D:---7----5----0-|
A:---X----X----X-|
E:---5----3----2-|
     T    T    T

Pre-Chorus

e:---2----0----0-----0----0--|
B:---3----0----5-----3----3--|
G:---2----1----6-----4----2--|
D:---4----2----7-----5----0--|
A:---2----2----X-----X----X--|
E:--------0----5-----3----2--|
               T     T    T

OR

Pre-Chorus
[ Tab from: http://www.guitartabs.cc/tabs/j/john_mayer/in_repair_tab.html ]
e---0---0---0---0---0----------|
b---0---0---5---3---3----------|
g---2---1---6---4---2----------|
d---0---0---7---5---0---(x2)---|
a---2---2---x---x---x----------|
e-------0---5---3---2----------|

*T=Thumb MMMkay
Chorus

e:--------2----0--|
B:---2----3----0--|
G:---2----2----1--|
D:---4----4----2--|
A:---X----2----2--|
E:---2---------0--|


Instrumental Thang:
e:---0----0-----0--|
B:---3----3-----3--|
G:---2----0-----2--|
D:---0----2-----0--|
A:--------3-----2--|
E:-----------------|


Outro

e:---0----5----0--|
B:---5----3----3--|
G:---6----4----2--|
D:---7----5----0--|
A:---X----X----X--|
E:---5----3----2--|
     T    T    T

In another version:10-x-12-9-10-0 instead of 2-x-0-2-3-0