John Mayer - I Got A Woman Chords & Tabs

 

I Got A Woman Chords & Tabs

John Mayer Chords & Tabs

Version: 1 Type: Tab

I Got A Woman Tab

   
I Got A Woman


Written by: Ray Charles

Performed by: John Mayer

Transcribed by: Gabe Opio

Tuning: Standard

Difficulty: ***


Key:

h -Hammer On
p -Pull Off
/ -Slide Up
\ -Slide Down
b -Bend
x -Muted String


Intro
[ Tab from: http://www.guitartabs.cc/tabs/j/john_mayer/i_got_a_woman_tab.html ]
e---------------------------------------------------|
b---------------------------------------------------|
g--11---------------------11-----------------/14\---|(x3)
d--10-10-10--12----10-----10-10-10--12----10--------|
a---------------12----7\---------------12-----------|
E---------------------------------------------------|


Verses & Chorus

e--5-4-5--5--7--------|
b--5-4-5--5--9--------|
g--6-5-6--5--7--------|
d--5-4-5--4--9--------|
a--x-x-x--5-----------|
E--5-4-5--------------|

Chords shown are not played in same order each time