John Mayer - Good Love Is On Its Way Chords & Tabs

 

Good Love Is On Its Way Chords & Tabs

John Mayer Chords & Tabs

Version: 1 Type: Tab 0 ratings
1 star 2 stars 3 stars 4 stars 5 stars
comments

Good Love Is On Its Way Tab

Hey, these are various peoples intervritaion on this song.

Tunning: Standard

Verse
|-00------------------|-33------------------| 
|-22------------------|-33------------------| 
|-22-----0h2-2p0------|-00--------2p0-------| 
|-22--0h2-------2p0---|-00----0h2----2p0----| 
|-00-2-------------3p0|-22-0h2----------2p0-| 
|---------------------|-33------------------| 

                  OR

|--------------------------------------------------------| 
|--2-2---------------------------------------------------| 
|--2-2---------------------------------------------------| 
|--2-2-------4h5p4p0h2p0-------0-0-------4h5p4p0h2p0-----| 
|--0-0-0h4p0------------h4p0---2-2-0h4p0------------h4p0-| 
|------------------------------3-3-----------------------| 


Chorus 
E|----2-2-2----------/5---------------------| 
B|----3-2-3---3---2--/5---------------------| 
G|----2-2-2---4---2--/6---------------------|
D|----0-0-0---5---2-------------------------| 
A|----x-x-x---x---0-------------------------| 
E|----2-2-2---3-----------------------------|
                      * optional, he does some variation here like 
                        slide to A on the 5th fret 
[ Tab from: http://www.guitartabs.cc/tabs/j/john_mayer/good_love_is_on_its_way_tab.html ]
bridge 
|----------------------------------|---------------------------| 
|----------------------2--2---/5---|---------------------------| 
|----------------------2--4h2-/6---|-----------------------1---| 
|----0---0---0---0-----2------/7---|----0---0---0---0------2---| 
|---0---0---0---0------0-----------|---0---0---0---0-------2---| 
|--7---5---3---2---3-4-------------|--7---5---3---2---3-2--0---| 
                                      * again variation here 

e:-----------------------------------------------------------------------| 
B:-----------------------------------------------------------------------| 
G:------------------ 0------------------------------------0--------------| 
D:--77------------4----4---0h2p0----------55------------4---4-----0h2p0--| 
A:--77--0h4p0-----------------------4p0---55--0h4p0----------------------| 
E:--55----------------------------------33-------------------------------| 

                                 OR, EASIER BRIDGE

|------------0-|------------3-| 
|------------2-|------------3-| 
|------------2-|------------0-| 
|-9-7-5-4----2-|-9-7-5-4----0-| 
|-9-7-5-4----0-|-9-7-5-4----2-| 
|-7-5-3-2-3-4--|-7-5-3-2-3--3-| 



Outro:
E|--------------5-------|--5--x-----| 
B|--------------5-------|--5--x-----| 
G|--------------5-------|--5--1-----| 
D|--------------7--(x4)-|--7--2-----| 
A|-10-9-7-5-----7-------|--7--2-----| 
E|----------2-3-5-------|--5--0-----|
Comments