John Mayer - Daughters Chords & Tabs

 

Daughters Chords & Tabs

John Mayer Chords & Tabs

Version: 4 Type: Tab 0 ratings
1 star 2 stars 3 stars 4 stars 5 stars
comments

Daughters Tab

John Mayer
"Daughters"
Heavier Things

Intro

Rhythym Guitar: 
e---0----0----0----0--|
b---0----0----0----0--|
g---7----7----7----7--| x2
d---7----5----5----4--|
a---X----X----0----5--|
e---7----0------------|

Lead Guitar:
e----------------------------------------------------------------|
b-------------------8----8----7----------------------------------|
g-----------12*---0--------------------------------9~-11b12-11~--|
d----9----12*----11---11---11---9~--11h12-9~-11h12---------------|
a---9---12*------------------------------------------------------|
e--7-------------------------------------------------------------|


Verse 1

"I know a girl..."
e---0----0----0----0-     --0--0--0--|
b---0----0----0----0-     --0--0--0--|
g---7----7----7----7- x4  --7--7--7--|
d---7----5----5----4-     --4--5--4--|
a---X----x----0----5-     --5--7--5--|
e---7----0-----------     -----------|

Chorus/Pre Chorus

e---0---0---0---0--|
b---0---0---0---0--|
g---7---7---7---7--| x4
d---7---6---5---4--|
a---X---x---0---5--|
e---7---0----------|

2nd Verse (rhythym played percussively)
[ Tab from: http://www.guitartabs.cc/tabs/j/john_mayer/daughters_tab_ver_4.html ]
Play this before the 2nd verse
e---------------------------------|
b---------------------------------|
g----------7-----------------9-7--|
d--9-----9-----9-11b12r11--7------|
a-----10--------------------------|
e---------------------------------|

"Oh, you see that skin?..."
e---------------------------------------|
b---------------------------------------|
g---7--7-7---7--7-7---7--7-7---7--7--9--| x3
d---9--X-9---5--5-5---5--7-5---4--5--7--|
a---X--9-X---7--X-7---X--X-X---5--7--9--|
e---7--7-7------7-----5--5-5------------|

Bridge

"boys you can break..."
e---------------------|
b---10----8----7h8p7--|
g---11----9----7------|
d---10----8----7------|
a----x----------------|
e---10----------------|

"You find out how much..."
e-------------0--|
b-------------0--|
g---11----9---7--|
d---11---11---7--|
a----x----x---X--|
e----9----9---7--|

"boys will be strong..."
e------------5----0--0--0--0--|
b--3----3----3----2--3--5--7--|
g--0----2----3----0--0--0--0--|
d--x----0----3----2--4--5--7--|
a--2----x----x----0--0--0--0--|
e--0----2----3----------------|

Solo
Keyboard solo (Guitar version would be this)

e-----------------------------------------------|
b-------------------------------------------11--|
g--11-12-------11-12------11-12-------11-12-----| x2
d--------12-11-------10-9-------12-11-----------|
a-----------------------------------------------|
e-----------------------------------------------|
Comments