John Mayer - Come Back To Bed Chords & Tabs

 

Come Back To Bed Chords & Tabs

John Mayer Chords & Tabs

Version: 2 Type: Tab

Come Back To Bed Tab

John Mayer - Come Back To Bed


Transcribed by Saso Sandic

This is the AOL sessions' version!
There are approx 6 strumms of each chord in the verse, depends
on the rythm you play.
The x notes (muted) can be played as 0 (open ringing)
and it would still sound great (a bit fuller) or vice versa.

Standard Tuning!

Verse 1 & 2 & 3:

e--0-0-0-0-0---0-0-0-0-0---0-0--0-0-----------------------|
b--5-5-5-5p0---3-3-3-3p0---3-3--0-0-----------------------|
g--6-6-6-6-6---4-4-4-4-4---2-2--2-2-----------------------|
d--7-7-7-7-7---5-5-5-5-5---0-0--3-3-----------------------|
a--x-x-x-x-x---x-x-x-x-x---x-x--x-x-----------------------|
E--5-5-5-5-5---3-3-3-3-3---2-2--3-3-----------------------|


Verse 4:

e--0-0-0-0-0---0-0-0-0-0---0-0--0-0---/x-x--x-------------|
b--5-5-5-5p0---3-3-3-3p0---3-3--0-0---/9-9--9-------------|
g--6-6-6-6-6---4-4-4-4-4---2-2--1-1---/9-9--9-------------|
d--7-7-7-7-7---5-5-5-5-5---0-0--2-2---/9-9--9-------------|
a--x-x-x-x-x---x-x-x-x-x---0-0--2-2---/9h11-11------------|
E--5-5-5-5-5---3-3-3-3-3---2-2--0-0---/x-x--x-------------|


Pre-Chorus:

e--x--x--x----x-x-x--/x-x--x--x---------------------------|
b--10-10-10---7-7-7--/9-9--9--9---------------------------|
g--9--9--9----7-7-7--/9-9--9--9---------------------------|
d--11-11-11---7-7-7--/9-9--9--9---------------------------| x 2
a--9--9--9----5-5-5--/9h11-11-11--------------------------|
E--x--x--x----x-x-x--/x-x--x--x---------------------------|

e--x--x--x----x-x-x---x-x-x-------------------------------|
b--10-10-10---5-5-5---7-7-7-------------------------------|
g--9--9--9----4-4-4---7-7-7-------------------------------|
d--11-11-11---6-6-6---7-7-7-------------------------------|
a--9--9--9----4-4-4---5-5-5-------------------------------|
E--x--x--x----x-x-x---x-x-x-------------------------------|

Chorus:

e--0-0-0-0-0-0---0-0-0-0-0--------------------------------|
b--5-5-5-5-0-5---3-3-3-3-3--------------------------------|
g--6-6-6-6-6-6---2-2-2-2-2--------------------------------|
d--7-7-7-7-7-7---0-0-0-0-0--------------------------------| x 3
a--x-x-x-x-x-x---x-x-x-x-x--------------------------------|
E--5-5-5-5-5-5---2-2-2-2-2--------------------------------|

e--0-0-0-0-0----0-0-0-0-0---------------------------------|
b--5p0-0-0-0----0-0-0-0-0---------------------------------|
g--6-6-6-6-6----2-2-2-2-2---------------------------------|
d--7-7-7-7-7----3-3-3-3-3---------------------------------|
a--x-x-x-x-x----x-x-x-x-x---------------------------------|
E--5-5-5-5-5----3-3-3-3-3---------------------------------|


Verse 5:

e--0-0-0-0-0---0-0-0-0-0---0-0--0-0-----------------------|
b--5-5-5-5p0---3-3-3-3p0---3-3--0-0-----------------------|
g--6-6-6-6-6---4-4-4-4-4---2-2--2-2-----------------------|
d--7-7-7-7-7---5-5-5-5-5---0-0--3-3-----------------------|
a--x-x-x-x-x---x-x-x-x-x---x-x--x-x-----------------------|
E--5-5-5-5-5---3-3-3-3-3---2-2--3-3-----------------------|

Verse 6:
[ Tab from: http://www.guitartabs.cc/tabs/j/john_mayer/come_back_to_bed_tab_ver_2.html ]
e--0-0-0-0-0---0-0-0-0-0---0-0--0-0---/x-x--x-------------|
b--5-5-5-5p0---3-3-3-3p0---3-3--0-0---/9-9--9-------------|
g--6-6-6-6-6---4-4-4-4-4---2-2--1-1---/9-9--9-------------|
d--7-7-7-7-7---5-5-5-5-5---0-0--2-2---/9-9--9-------------|
a--x-x-x-x-x---x-x-x-x-x---0-0--2-2---/9h11-11------------|
E--5-5-5-5-5---3-3-3-3-3---2-2--0-0---/x-x--x-------------|


Pre-Chorus:

e--x--x--x----x-x-x--/x-x--x--x---------------------------|
b--10-10-10---7-7-7--/9-9--9--9---------------------------|
g--9--9--9----7-7-7--/9-9--9--9---------------------------|
d--11-11-11---7-7-7--/9-9--9--9---------------------------| x 2
a--9--9--9----5-5-5--/9h11-11-11--------------------------|
E--x--x--x----x-x-x--/x-x--x--x---------------------------|

e--x--x--x----x-x-x---x-x-x-------------------------------|
b--10-10-10---5-5-5---7-7-7-------------------------------|
g--9--9--9----4-4-4---7-7-7-------------------------------|
d--11-11-11---6-6-6---7-7-7-------------------------------|
a--9--9--9----4-4-4---5-5-5-------------------------------|
E--x--x--x----x-x-x---x-x-x-------------------------------|

Chorus:

e--0-0-0-0-0-0---0-0-0-0-0--------------------------------|
b--5-5-5-5-0-5---3-3-3-3-3--------------------------------|
g--6-6-6-6-6-6---2-2-2-2-2--------------------------------|
d--7-7-7-7-7-7---0-0-0-0-0--------------------------------| x 7
a--x-x-x-x-x-x---x-x-x-x-x--------------------------------|
E--5-5-5-5-5-5---2-2-2-2-2--------------------------------|

e--0-0-0-0-0----0-0-0-0-0--0-0-0--------------------------|
b--5p0-0-0-0----0-0-0-0-0--0-0-0--------------------------|
g--6-6-6-6-6----2-2-2-2-2--1-1-1--------------------------|
d--7-7-7-7-7----3-3-3-3-3--2-2-2--------------------------|
a--x-x-x-x-x----x-x-x-x-x--2-2-2--------------------------|
E--5-5-5-5-5----3-3-3-3-3--0-0-0--------------------------|


Pre-Chorus:

e--x--x--x----x-x-x--/x-x--x--x---------------------------|
b--10-10-10---7-7-7--/9-9--9--9---------------------------|
g--9--9--9----7-7-7--/9-9--9--9---------------------------|
d--11-11-11---7-7-7--/9-9--9--9---------------------------| x 2
a--9--9--9----5-5-5--/9h11-11-11--------------------------|
E--x--x--x----x-x-x--/x-x--x--x---------------------------|

e--x--x--x----x-x-x---x-x-x--12-12-12---------------------|
b--10-10-10---5-5-5---7-7-7--10-10-10---------------------|
g--9--9--9----4-4-4---7-7-7--11-11-11---------------------|
d--11-11-11---6-6-6---7-7-7--0--0--0----------------------|
a--9--9--9----4-4-4---5-5-5--x--x--x----------------------|
E--x--x--x----x-x-x---x-x-x--10-10-10---------------------|

Chorus:

e--0-0-0-0-0-0---0-0-0-0-0--------------------------------|
b--5-5-5-5-0-5---3-3-3-3-3--------------------------------|
g--6-6-6-6-6-6---2-2-2-2-2--------------------------------|
d--7-7-7-7-7-7---0-0-0-0-0--------------------------------| x 11
a--x-x-x-x-x-x---x-x-x-x-x--------------------------------|
E--5-5-5-5-5-5---2-2-2-2-2--------------------------------|

Outro:

e--0-0-0-0-0----0-0-0-0-0---------------------------------|
b--5p0-0-0-0----3-3-3-3-3---------------------------------|
g--6-6-6-6-6----2-2-2-2-2---------------------------------|
d--7-7-7-7-7----0-0-0-0-0---------------------------------|
a--x-x-x-x-x----x-x-x-x-x---------------------------------|
E--5-5-5-5-5----2-2-2-2-2---------------------------------|