John Mayer - Bigger Than My Body Chords & Tabs

 

Bigger Than My Body Chords & Tabs

John Mayer Chords & Tabs

Version: 2 Type: Tab 0 ratings
1 star 2 stars 3 stars 4 stars 5 stars
comments

Bigger Than My Body Tab

   
I saw him on MTV last night playing an acoustic version of "Bigger Than My Body"
and even though I was half asleep I'm pretty sure this is where he was playing
the acoustic version of this song.

Intro:
You just got feel this. I got the basic idea, but I still just play around
alittle on this to give it orginality and fullness.
e-----0-----0-----0-Mess around with h/o and p/o with the 2nd and 1st fret
B-----0-----0-----0-on the "G" string and play around with the bottom 4 
G-----9-9s6-6-6s1-1-strings. You just gotta feel it.
D---9---9s6---6s2---
A-------------------
E-0-----------------
[ Tab from: http://www.guitartabs.cc/tabs/j/john_mayer/bigger_than_my_body_tab_ver_2.html ]
Pre-Chorus:
Where the "x"'s are bared... play those strings muffeled, but in a rythmic way to fit the song.
e----------------
B--------------12
G-9-x-9--x-9-x-12
D-9-x-9--x-9-x-10
A-7-x-x--x-x-x-12
E---x-10-x-9-x---

e------------
B----------12
G-9-x-9--x-12
D-9-x-9--x-10
A-7-x-x--x-12
E---x-10-x---

Chorus:
e------
B-5----
G-x-1-2
D-6-2-2
A-4-2--
E------

Solo:
e----------------------------------------------------------15-17-------15-17-
B-------------------13-15-13-15-13-15----------------13-15-------13-15-------
G-12-12-14-15-14-15-------------------12-14-15-14-15-------------------------
D----------------------------------------------------------------------------
A----------------------------------------------------------------------------
E----------------------------------------------------------------------------
Comments