John Mayer - Belief Chords & Tabs

 

John Mayer Chords & Tabs

Version: 5 Type: Tab 0 ratings
1 star 2 stars 3 stars 4 stars 5 stars
comments

Belief Tab

Belief
transcribed by Catherine Gagné

Standard tuning

Intro / Verse

e--------------------------------------------|
b--------------------------------------------|
g-----------10--10----9---------7----7----5—-|
d--------------------------------------------|
a--------/12---12--\10-------/8----8---\7----|
e--10-10-----------------3-3-----------------|

|----------------------------------------------|
|----------------------------------------------|
|---------3---3---2-----------10---10-----12---|
|----------------------------------------------|
|-3-3--/5---5--\3---------/12---12---12/13-----|
|-------------------10-10----------------------|

"Oh everyone believes.."

|--------------------------------------------------------------------------|
|------/11--11--10---------10--10--8---------8---8---6--------6---6--5-\-3-|
|--------------------------------------------------------------------------|
|----/12--12--\10-------/10--10-\8--------/8---8---\7-------/7---7---------|
|-------------------3-3---------------------------------1-1----------------|
|-3-3----------------------------------1-1---------------------------------|


Chorus

e|------------------------------|
b|------------------------------|
g|---10-------10-------9----7---|
d|----x--------x-------x---10---|
a|---12---/14-14--/10-10----x---|
E|---10---------------------8---|


Solo
[ Tab from: http://www.guitartabs.cc/tabs/j/john_mayer/belief_tab_ver_5.html ]
E|--------------------------------------|
b|---13/15~~~~--------------------------|
g|-------------12/14-14\12~~~~-p10h12~~-|
d|--------------------------------------|
a|--------------------------------------|
e|--------------------------------------|

---------------------------------------------|
-----12-15-12--------------------------------|
12b14---------12b14-12-10--------------------|
-------------------------12------------------|
----------------------------12\10p8-10~~~~---|
---------------------------------------------|


---------------------------------------------|
---------------------------------------------|
----------------------------10~~-------------|
----------------------10-12------12~~p10-----|
---12/10-8-10-8-10/12------------------------|
---------------------------------------------|

-----------------------------------------------------|
-----------------------------------------------------|
-5/7-5/7-5/7~~7p5------------------------------------|
------------------7\5p3------3/5-3/5-3/5~~/6\5~~p3~~-|
------------------------5~~--------------------------|
-----------------------------------------------------|

------------------------|
---12/13-12/13-12/13--\-|
---13/14-13/14-13/14--\-|
------------------------|
------------------------|
------------------------|

----------------------------------------------10-13b15-10----10~~~~-\-|
----------------------------------------10-13-------------13----------|
------------10-12b13-12-10-10h12p10-12--------------------------------|
------10-12-----------------------------------------------------------|
--/12-----------------------------------------------------------------|
----------------------------------------------------------------------|
Comments