John Mayall - Hideaway Chords & Tabs

 

Hideaway Chords & Tabs

John Mayall Chords & Tabs

Version: 1 Type: Bass Tab 0 ratings
1 star 2 stars 3 stars 4 stars 5 stars
comments

Hideaway Bass Tab

   
Hideaway,btab
John Mayall
TablEdited by Poppamies
Tuning : E A D G 	Time Signature: 4/4

 tempo 142       |       |        |       |       |       |        
|--------------------------------|--------------------------------|
|--------------------------------|2-----2-0-----0---------------0-|
|------------------------------2-|----------------4-----2-4-------|
|--------------------------------|--------------------------------|

 |       |       |       |        |       |       |       |        
|--------1-----1-4---------------|--------1-----------------------|
|2-----2-----------------0-----2-|2-----2---------0-----0-------0-|
|----------------------2---------|--------------2---------4-------|
|--------------------------------|--------------------------------|

 |       |       |       |        |       |       |       |        
|--------1-----1-4-----4-3-----3-|2-----2-0-----0-----------------|
|2-----2-------------------------|----------------2-----2-------2-|
|--------------------------------|------------------------4-------|
|--------------------------------|--------------------------------|

 |       |       |       |        |       |       |       |        
|----------------0-------2-------|--------------------------------|
|--------------2---------------0-|2-----2-0---------------------0-|
|0-----0-4-----------------------|----------------4-----2-4-------|
|--------------------------------|--------------------------------|
[ Tab from: http://www.guitartabs.cc/tabs/j/john_mayall/hideaway_btab.html ]
 |       |       |       |        |       |       |       |        
|--------1-------2-------3-----3-|4-------------0-2-------4-----2-|
|2-----2-------------------------|--------1-----------------------|
|--------------------------------|------2-------------------------|
|--------------------------------|--------------------------------|

 |       |       |       |        |       |       |       |        
|2-----2-0-----0-----------------|--------1-----1-2-----2-3-----3-|
|----------------2-------------0-|2-----2-------------------------|
|----------------------0-4-------|--------------------------------|
|--------------------------------|--------------------------------|

 |       |       |       |        |       |       |       |        
|4-------------------------------|--------------------------------|
|------------------------------0-|2-----2-0-------------------0---|
|--------2-----2-----------------|----------------4-------2-4-----|
|--------------------------------|--------------------------------|

 |       |       |       |        |       |       |       |        
|--------1-----1-4---------------|--------1-----------------------|
|2-----2-----------------0-------|2-----2---------0-----0-------0-|
|----------------------2-------2-|--------------2---------4-------|
|--------------------------------|--------------------------------|

 |       |       |       |        |       |       |       |        
|--------1-----1-4-----4-3-----3-|2-----2-0-----0-----------------|
|2-----2-------------------------|----------------2-----2-------2-|
|--------------------------------|------------------------4-------|
|--------------------------------|----------and so on...----------|

Transcribe! 6.0 transcription http://www.seventhstring.demon.co.uk/
Created with TablEdit http://www.tabledit.com/
http://www.geocities.com/jani_bjorklund/janis.html
Comments