John Lennon - Watching The Wheels Chords & Tabs

 

Watching The Wheels Chords & Tabs

John Lennon Chords & Tabs

Version: 1 Type: Bass Tab 0 ratings
1 star 2 stars 3 stars 4 stars 5 stars
comments

Watching The Wheels Bass Tab

   
Standart Tuning

Intro:   |C F |  x2

Verse: (x2)

    C                       F
|-----5-----5--------5--|-------10----------------------|
|-----------------------|-----------7--10-----7---/10\--|
|--3-----3-------3------|--/8---------------------------|
|-----------------------|-------------------------------|

   C                       C 
|-----5-----5--------5--|-----5-----5--------5--|
|-----------------------|-----------------------|
|--3-----3-------3------|--3-----3-------3------|
|-----------------------|-----------------------|


Bridge:

   F       Dm             G
|---------------------|-----------------------------|
|---------------------|-------------------12--------|
|--8---8-------5---5--|--/10----10--12h14------14\--|
|---------------------|-----------------------------|

  F       Dm             G
|---------------------|------------------------------|
|---------------------|-------------------12--12h14--|
|--8---8-------5---5--|---10----10--12h14------------|
|---------------------|------------------------------|

  G
|--12---------|
|-------------|
|--------10\--|
|-------------|

Verse

Bridge2: Simply add this measure

  G
|-------------|
|----------5--|
|--5--7-------|
|-------------|

Chorus: (start on 1+)
[ Tab from: http://www.guitartabs.cc/tabs/j/john_lennon/watching_the_wheels_btab.html ]
  F                G               C               Am
|-------------------------------|---------------------------|
|--3-3-------3------5--5-----5--|------------5-----------2--|
|------3-(3)-------------/5-----|--3--3--/7------0-0-2-3----|
|-------------------------------|---------------------------|


  F           Am/E           Dm           Dm/C
|------------------------|---------------------------|
|--3-3----3---2-2-----2--|---5-5-----5----3-3-----3--|
|------3----------3------|--------/5----------/5-----|
|------------------------|---------------------------|

   G              F           Am     Am/G     Am/F#(=F#halfdim) 
|--------------------------|---------------|-----|
|-----------------3-3---3--|--7--7---5--5--|--4--|
|-----------5---------3----|---------------|-----|
|--3-3--/7-----------------|---------------|-----|

ending1:

  F      Fm
|-----------|
|--15\------|
|--------8--|
|-----------|

Intro (w/ verse bass riff x1)

Verse

Chorus /w ending2 (replacing ending1):


  F    Fm/Ab  C   Am/Gb    F    Fm/Ab   C      Am/Gb F   Fm/Ab    C
|----------|---------|--------------|-------------|----------|--------|
|----------|---------|--------------|-------------|----------|--------|
|--8---11--|------9--|-----8----11--|------7-8-9--|--8---11--|----8---|
|----------|--8------|--------------|---8---------|----------|--------|
Comments