John Legend - Used To Love You Chords & Tabs

 

Used To Love You Chords & Tabs

John Legend Chords & Tabs

Version: 1 Type: Bass Tab 0 ratings
1 star 2 stars 3 stars 4 stars 5 stars
comments

Used To Love You Bass Tab

(intro/verse/chorus)
G---------|--------------|
D--111-3-5|3--1--11---00-|
A-3---3---|-------------1|
E---------|----4---4-3---|

Before Chorus Bridge
G------------------------------|
D--6(6)--5(5)--33--1(1)----6-5-|
A----------------------5(5)----|
E------------------------------|
[ Tab from: http://www.guitartabs.cc/tabs/j/john_legend/used_to_love_you_btab.html ]
After Chorus Bridge
G---------------------------------------|
D--6-----6---5-5----3(3)--1(1)------6(5)|
A-------6-6---6-6------------5(5)-------|
E---------------------------------------|

After Baseless Part Bridge
G--------------------------------------|
D--6-----6---5-5----3---(3)56------6(5)|
A-------6-6---6-6-------------5(5)-----|
E--------------------------------------|

It is basically the same throughout the whole song, there are some places with extra 
ghost notes and whatnots but those are improv and are just repeats of the notes above...
Comments