John Legend - Refuge Chords & Tabs

 

Refuge Chords & Tabs

John Legend Chords & Tabs

Version: 1 Type: Tab 0 ratings
1 star 2 stars 3 stars 4 stars 5 stars
comments

Refuge Tab

This is only the melody ... so i hope its ok
[ Tab from: http://www.guitartabs.cc/tabs/j/john_legend/refuge_tab.html ]
e--2-----5--2--3-----7--3-----3-|
b-----3-----------3--------3----|
g-------------------------------|
d-------------------------------|
a-------------------------------|
E-------------------------------|

e--5--0--9--5--3-----7--3-----3-|
b-----------------3--------3----|
g-------------------------------|
d-------------------------------|
a-------------------------------|
E-------------------------------|

repeat throughout whole song 

enjoy:)xtiffax
Comments