John Frusciante - Water Chords & Tabs

 

Water Chords & Tabs

John Frusciante Chords & Tabs

Version: 1 Type: Tab 0 ratings
1 star 2 stars 3 stars 4 stars 5 stars
comments

Water Tab

   
John Frusciante
Water
Shadows Collide with people
Standard tuning(EADGBe)
By Stephen Mc Carthy

Chorus
  E    B    A    D#m       E    B    A    E
|-7-7--7-7--5-5--4-4-|   |-7-7--7-7--5-5--0-|
|-9-9--7-7--5-5--5-5-|   |-9-9--7-7--5-5--0-|
|-9-9--8-8--6-6--6-6-|   |-9-9--8-8--6-6--1-|
|-9-9--9-9--7-7--6-6-|x3 |-9-9--9-9--7-7--2-|
|-7-9--9-9--7-7--4-4-|   |-7-7--9-9--7-7--2-|
|-x-x--7-7--5-5--x-x-|   |-x-x--7-7--5-5--0-|

Verse
  G#m
|-4-4-------4-4|
|-4-4-------4-4|
|-4-4-------4-4|
|-6-6-------6-6|
|-6-6-------6-6|
|-4-4-1-2-4-4-4|

Reach inside of a bag....
  C#m    G#m  B   F#m
|-9--9--4-4--7-7--2-2-|
|-9--9--4-4--7-7--2-2-|
|-9--9--4-4--8-8--2-2-|
|-11-11-6-6--9-9--4-4-|
|-9--9--6-6--9-9--4-4-|
|-9--9--4-4--7-7--2-2-|

Solo: With heavy distortion
|--------------------------------------------------------------------|
|-------21-21-21-21-21-21-21-21-21-21-21-19-17-16-17--21-19-17-16-17-|
|--------------------------------------------------------------------|
|-11-----------------------------------------------------------------|
|--------------------------------------------------------------------|
|--------------------------------------------------------------------|
[ Tab from: http://www.guitartabs.cc/tabs/j/john_frusciante/water_tab.html ]
|-------------16---------------------------------------------------------|
|17b19-------------------------------------------------------------------|
|---------18---------16-18--------------------------------11-13-------13-|
|----------------18-------19-18---19-18----18~~-----13-14-------13-14----|
|--------------------------------------19--------------------------------|
|------------------------------------------------------------------------|

|------------------------------------------------------------------------|
|------------------------------------------------------------------------|
|------13---16-13-------------------13-------13-------13--16-13----------|
|13-14------------12b13-11~---13-14----13-14----13-14-----------11-13-14-|
|------------------------------------------------------------------------|
|------------------------------------------------------------------------|

|------------------------------------------------------------------------|
|------------------------------------------------------------------------|
|-13-------13-------13-18-13----------13-------13-------13-18-13---------|
|----13-14----13-14----------11-13-14----13-14----13-14----------11-10-11|
|------------------------------------------------------------------------|
|------------------------------------------------------------------------|

|14-12-15b16~--14-12-15b16~--14-12-11----
|----------------------------------------
|-------------------------------------13-There is some weird effects here
|----------------------------------------so I couldn't work out the end.If
|----------------------------------------you have any suggestions e-mail me
|----------------------------------------at yorkie_561@hotmail.com.
Comments