John Frusciante - Tiny Dancer Chords & Tabs

 

Tiny Dancer Chords & Tabs

John Frusciante Chords & Tabs

Version: 1 Type: Tab 0 ratings
1 star 2 stars 3 stars 4 stars 5 stars
comments

Tiny Dancer Tab

   
John Frusciante Cover
Tiny Dancer - Originally Sir Elton John

Capo = 6th Fret
Notes Appear As Un-Capoed Guitar
Tabbed By Chris Munday
Tabbed Using "Easy Guitar Tabber"
Tempo = 72bpm

              ----------------------------

This has been helped along using the submissions from Grenie and
lithium1285@email.com. At least I'm honest...

              ----------------------------

Frusciante Does not play this. It just sounds better to play this
to make it sound like a full song. If you are playing this live
then you may want to play this as a intro/outro.

Main Riff
E|-------0----------------1-------|
B|-----1-----3----------1-----1---|
G|---0----------------2-----------|
D|-2----------------3-------------|
A|-3------------------------------|
E|--------------------------------|

               ----------------------------

Chorus Riff
[ Tab from: http://www.guitartabs.cc/tabs/j/john_frusciante/tiny_dancer_tab.html ]
   F    F    C    C    Dm   Dm  Dm
E|-1----1--------------1----1----1--------|
B|-1----1----1----1----3----3----3--------|
G|-2----2----0----0----2----2----2--------|
D|-3----3----2----2----0----0----0---0-2--|
A|-----------3----3-----------------------|
E|----------------------------------------|

   F    F    C    C    G5   G5   G5   G5
E|-1----1--------------3----3----3----3----|
B|-1----1----1----1----0----0----0----0----|
G|-2----2----0----0----0----0----0----0----|
D|-3----3----2----2----0----0----0----0----|
A|-----------3----3------------------------|
E|---------------------3----3----3----3----|

Chorus Riff Order

F    F       C      C     D    D   D      
     Hold me closer tiny dancer,
F    F         C          C      G5     G5   G5 G5
     Count the headlights on the highway.
F    F       C      C     D    D   D  
     Lay me down in sheets of linen,
F    F         C          C      G5     G5   G5 G5
     We've had a busy day today.


Questions etc.. chris_munday1852@hotmail.com or www.angstband.tk
Comments