John Frusciante - This Cold Chords & Tabs

 

This Cold Chords & Tabs

John Frusciante Chords & Tabs

Version: 1 Type: Bass Tab 0 ratings
1 star 2 stars 3 stars 4 stars 5 stars
comments

This Cold Bass Tab

   
-----------------------------------------------------------------------------
			  THIS COLD - John Frusciante
-----------------------------------------------------------------------------

Tabbed By : Ignacio "Coco" Vespoli
e-mail: cocofuhgawz@hotmail.com

Play the tab in that order and you will get it!!! ATTENTION: In the end there are some
riffs that you will have to figure out because its not easy; for the rest of the song,
just follow the rythm.

Tuning: Normal

G|---------|---------|---------|---------|
D|---------|---------|---------|---------|
A|---------|---------|--3-3-3--|---------|
E|---5-5-5-|--1-1-1--|---------|--3-3-3--|

G|---------|---------|---------|---------|
D|---------|---------|---------|---------|
A|---------|---------|--3-3-3--|---------|
E|---5-5-5-|--1-1-1--|---------|--3-3-3--|

G|---------|---------|---------|---------|
D|---------|---------|---------|---------|
A|---------|---------|--3-3-3--|---------|
E|---5-5-5-|--1-1-1--|---------|--3-3-3--|

G|---------|---------|---------|---------|
D|---------|---------|---------|---------|
A|---------|---------|--3-3-3--|---------|
E|---5-5-5-|--1-1-1--|---------|--3-3-3--|

G|---------|---------|---------|---------|
D|---------|---------|---------|---------|
A|---------|---------|--3-3-3--|---------|
E|---5-5-5-|--1-1-1--|---------|--3-3-3--|

G|---------|---------|---------|---------------|
D|---------|---------|---------|---------------|
A|---------|---------|--3-3-3--|---------------|
E|---5-5-5-|--1-1-1--|---------|--3-3-3-3-3-3--|

G|-----------------------------------|
D|-----------------------------------|
A|--2-2-2-2-0-0--0--3-3--3-3-2-2--0--|
E|-----------------------------------|

G|--------------------------------|
D|--------------------------------|
A|--2-2-2-2-0-0--0--3-3--3-3-2-2--|
E|--------------------------------|

G|---------|---------|---------|---------|
D|---------|---------|---------|---------|
A|---------|---------|--3-3-3--|---------|
E|---5-5-5-|--1-1-1--|---------|--3-3-3--|

G|---------|---------|---------|---------------|
D|---------|---------|---------|---------------|
A|---------|---------|--3-3-3--|---------------|
E|---5-5-5-|--1-1-1--|---------|--3-3-3-3-3-3--|

G|-----------------------------------|
D|-----------------------------------|
A|--2-2-2-2-0-0--0--3-3--3-3-2-2--0--|
E|-----------------------------------|
[ Tab from: http://www.guitartabs.cc/tabs/j/john_frusciante/this_cold_btab.html ]
G|-----------------------------------|
D|-----------------------------------|
A|--2-2-2-2-0-0--0/2/3-3-3--3-3-2-2--|
E|-----------------------------------|

G|---------|---------|---------|---------|
D|---------|---------|---------|---------|
A|---------|---------|--3-3-3--|---------|
E|---5-5-5-|--1-1-1--|---------|--3-3-3--|

G|---------|---------|---------|---------------|
D|---------|---------|---------|---------------|
A|---------|---------|--3-3-3--|---------------|
E|---5-5-5-|--1-1-1--|---------|--3-3-3-3-3-3--|

G|-----------------------------------|
D|-----------------------------------|
A|--2-2-2-2-0-0--0--3-3--3-3-2-2--0--|
E|-----------------------------------|

G|-----------------------------------|
D|-----------------------------------|
A|--2-2-2-2-0-0--0/2/3-3-3--3-3-2-2--|
E|-----------------------------------|

G|---------|---------|-----------------|
D|---------|---------|-----------------|
A|---------|---------|-----------------|
E|--1-1-1--|--3-3-3--|--5-5-5-5-5-5-5--|

G|---------|---------|-----------------|---------------|
D|---------|---------|-----------------|---------------|
A|---------|---------|-----------------|---------------|
E|--1-1-1--|--3-3-3--|--5-5-5-5-5-5-5--|--7h8-7-5-7-5--|

G|---------|---------|-----------------|-------------------|
D|---------|---------|-----------------|-------------------|
A|---------|---------|-----------------|-------------------|
E|--1-1-1--|--3-3-3--|--5-5-5-5-5-5-5--|--7h8-8-7-5-7-5-0--|

G|---------|---------|-----------------|
D|---------|---------|-----------------|
A|---------|---------|-----------------|
E|--1-1-1--|--3-3-3--|--5-5-5-5-5-5-5--|

G|---------|---------|-----------------|
D|---------|---------|-----------------|
A|---------|---------|-----------------|
E|--1-1-1--|--3-3-3--|--5-5-5-5-5-5-5--|

G|---------|---------|-----------------|---------------|
D|---------|---------|-----------------|---------------|
A|---------|---------|-----------------|---------------|
E|--1-1-1--|--3-3-3--|--5-5-5-5-5-5-5--|--7h8-7-5-7-5--|

G|---------|---------|------------------------|
D|---------|---------|------------------------|
A|---------|---------|-0h3-0h3-0h3-0h3-0h3-0--|
E|--1-1-1--|--3-3-3--|------------------------|

G|---------|---------|-----------|
D|---------|---------|-----------|
A|---------|---------|-----------|
E|--1-1-1--|--3-3-3--|-3h5~~~~---|



 /  slide up
 \  slide down
 h  hammer-on
 p  pull-off
 ~  vibrato
 +  harmonic
 x  Mute note
=============================================================================
Comments? Send me an e-mail!!!
Comments