John Frusciante - The Will To Death Chords & Tabs

 

The Will To Death Chords & Tabs

John Frusciante Chords & Tabs

Version: 3 Type: Tab 0 ratings
1 star 2 stars 3 stars 4 stars 5 stars
comments

The Will To Death Tab

Author/Artist: John Frusciante
Title: The Will To Death
Album: The Will To Death
Transcribed by: Swainer
Email: Motion_46@hotmail.com

Intro - x2
e|-x--x--xx----x-x----2--2--22----x-x-----x--x--xx-----x-x-----2-2--2-22|---|
B|-9--9--99----4-4----2--2--22----5-5-----9--9--99-----4-4-----2-2--2-22|---|
G|-9--9--99----4-4----2--2--22----6-6-----9--9--99-----4-4-----2-2--2-22|---|
D|-9--9--99----4-4----4--4--44----7-7-----9--9--99-----4-4-----4-4--4---|---|
A|-7--7--77----2-2----4--4--44----7-7-----7--7--77-----2-2-----4-4--4---|---|
E|-x--x--xx----x-x------------------------x--x--xx-----x-x--------------|---|

Verse - x7			     Pre-Chorus
e|x--x--xx---x-x---2--2--22----x-x---|-x--x--xx----x-x----2-2-22--22-2-222-|
B|9--9--99---4-4---2--2--22----5-5---|-9--9--99----4-4----2-2-22--22-2-222-|
G|9--9--99---4-4---2--2--22----6-6---|-9--9--99----4-4----2-2-22--22-2-222-|
D|9--9--99---4-4---4--4--44----7-7---|-9--9--99----4-4----4-4-44--44-4-444-|
A|7--7--77---2-2---4--4--44----7-7---|-7--7--77----2-2----4-4-44--44-4-444-|
E|x--x--xx---x-x---------------------|-x--x--xx----x-x---------------------|
[ Tab from: http://www.guitartabs.cc/tabs/j/john_frusciante/the_will_to_death_tab_ver_3.html ]

	                                                                    Chorus - x4
e|2--2--22-22-2-----x--x-----x--x----|--------------------------------------|
B|2--2--22-22-2-----9--9-----4--4----|--------------------------------------|
G|2--2--22-22-2-----9--9-----4--4----|--------------------------------------|
D|4--4--44-44-4-----9--9-----4--4----|--------------------------------------|
A|4--4--44-44-4-----7--7-----2--2----|--------------------------------------|
E|------------------x--x-----x--x----|--------------------------------------|

Bridge - x2
e|2--2--22-22-2--------2--2--22-22-2-|--------------------------------------|
B|2--2--22-22-2--------2--2--22-22-2-|--------------------------------------|
G|2--2--22-22-2--------2--2--22-22-2-|--------------------------------------|
D|4--4--44-44-4--------4--4--44-44-4-|--------------------------------------|
A|4--4--44-44-4--------4--4--44-44-4-|--------------------------------------|
E|-----------------------------------|--------------------------------------|

Solo??????

Intro
Verse
Pre-Chorus
Chorus
Verse
Pre-Chorus
Chorus
?Solo?
Comments